» » »

Misfits, Dead Kings Rise Tabs (ver.1)

Artists:  A B C D E F G H I J K L M N O P Q R S T U V W X Y Z # 

Dead Kings Rise Tabs (ver.1)

Misfits Tabs
Rating:
0/5 (0 votes)
Dead Kings Rise lessons Tabs too difficult? Try these video lessons and learn fast
                Misfits

E|------------------------------------------------------------
B|------------------------------------------------------------
G|-5555555--7777777--8888888-5-------------------888888-5-----
D|-5555555--7777777--8888888-5-----555555-888888-888888-5-----
A|-3333333--5555555--6666666-3-6s5-555555-888888-666666-3-6s5-
E|---------------------------------333333-666666--------------
  |_________________________|
	      PM

E|----------------------------------------------------------------------
B|----------------------------------------------------------------------
G|---------------888888-5-------------------888888-10-10-10-10-10-10-10-
D|-555555-888888-888888-5-----555555-888888-888888-10-10-10-10-10-10-10-
A|-555555-888888-666666-3-6s5-555555-888888-666666-8--8--8--8--8--8--8--
E|-333333-666666--------------333333-666666-----------------------------

E|-------------------------------
B|-------------------------------
G|-7777777-8888888---------------
D|-7777777-8888888-8888888-5-----
A|-5555555-6666666-8888888-5-6s5-
E|-----------------6666666-3-----
                  |_______|
	             PM
E|-------------------------------
B|-------------------------------
G|-7777777-8888888---------5-----
D|-7777777-8888888-8888888-5-----
A|-5555555-6666666-8888888-3-6s5-
E|-----------------6666666-------
                  |_______|
                     PM
            

comments powered by Disqus
↑ Back to top | Misfits Tabs for Dead Kings Rise. Lyrics for acoustic guitar and electric guitar. Tablatures and chords are parodies/interpretations of the original songs. You may use it for private study, scholarship, research or language learning purposes only