» » »

The Look Bass

Artists:  A B C D E F G H I J K L M N O P Q R S T U V W X Y Z # 

The Look Bass

(ver. 1)
Metronomy Tabs
 Rating:
4.5/5 (8 votes)
    The Look lessons Tabs too difficult? Try these video lessons and learn fast
                I dont mind taking requests for bass tabs and will try my best to get 
them accurate, especially if the song is good and worth doing!
Just leave a message on my profile wall.

-----------------------------------------------------------------------------
-----------------------------------------------------------------------------


Tuning: Standard

Bass comes in at 1:08

G|------------9-------------------------------------------------------------|
D|--9----9--9---------------------------------------------------------------|
A|--------------------------------------------------------------------------|
E|--------------------------------------------------------------------------|

G|------7-9-5-----7-9-5-------5-------------9-------------------------------|
D|----------------------7---7---7-9----9--9---------------------------------|
A|--8---------5-------------------------------------------------------------|
E|--------------------------------------------------------------------------|

And its just that for the whole song pretty much. Easy.

=============================================================================
            
Submit corrections

↑ Back to top | Metronomy Bass for The Look. Lyrics for acoustic guitar and electric guitar. Tablatures and chords are parodies/interpretations of the original songs. You may use it for private study, scholarship, research or language learning purposes only