» » »

St Anger Tabs (ver.4)

Artists:  A B C D E F G H I J K L M N O P Q R S T U V W X Y Z # 

St Anger Tabs (ver.4)

Metallica
Rating:
0/5 (0 votes)

Hard to play? Try these video lessons and learn fast.
                "Here are all the riffs to the song, listen to the song
and play along and listen to where everything goes.

Tuning C G C F A D

Intro: Gtr 1
D|---------------------------------------------------||
A|---------------------------------------------------||
F|---------------------------------------------------||o 3x
C|---------------------------------------------------||o
G|---------------------------------------3--3--3-----||
C|--1--2--2--1--2--1--0--2---1--0--1--1-----------0--||
pm.............    ....      ...........

Fill:
D|------------------------------------------|
A|------------------------------------------|
F|------------------------------------------|
C|------------------------------------------|
G|---------------------------------------0--|
C|--1--2--2--1--2--1--0--2--1--x---------0--|
pm.............    ....       ....      ....


D|---------------------------------------------------||
A|---------------------------------------------------||
F|---------------------------------------------------||o
C|--------------------------------------3--3--3------||o 3x
G|--1--2--2--1--2--1--0--2--1--0--1--1--3--3--3------||
C|--1--2--2--1--2--1--0--2--1--0--1--1-----------0---||
pm.............    .....    ..........          ...

(0:19) Gtr. 1
D|-----------------------------------------------------------||
A|-----------------------------------------------------------||
F|-----------------------------------------------------------||o
C|-----------------------------------------------------------||o
G|--1--2--2--1--2--1--0--2-1--0-2-1---0-------------3-3-3----||
C|--1--2--2--1--2--1--0--2-1--0-2-1---0-2--1-0-1-1--------0--||
pm.............    .....   . ...  ......   .......      
      Gtr. 2
D|----------------------------------------------------||
A|----------------------------------------------------||
F|----------------------------------------------------||o
C|----------------------------------------------------||o
G|----------------------------------------------------||
C|--------------2--1--0--2-1--0-2-1---0-2--1-0h1------||
pm                 .....   .  .   .....   ......

Gtr. 1 continued... 
D|----------------------------------------------------||
A|----------------------------------------------------||
F|----------------------------------------------------||o
C|----------------------------------------------------||o 3x
G|---------------------------3-3-3--------------------||
C|--1-2-2-0-2-1-0-2--1-0-1-1-------0------------------||
pm.........   ...    .......

Gtr. 2 continued...
D|----------------------------------------------------||
A|----------------------------------------------------||
F|----------------------------------------------------||o
C|----------------------------------------------------||o 3x
G|----------------------------------------------------||
C|----------2-1-0-2--1-0h1----------------------------||
pm            ...    .....

1st and 2nd Verses: (0:56,2:59) 
Gtr. 1  clean
D|----------------------------------------------------|
A|------------1---3-----1---3----3--------------------|
F|--2------2---------2--------------------------------|
C|----------------------------------0-----------------|
G|----------------------------------------------------|
C|----------------------------------------------------|

Gtr. 2  clean
D|-----------2-----------------------------------------------------------------|
A|--3------------3--------------3-------3---3--------3----------3--3-----3---3-|
F|--2--2----------------------0---0---------------2----2---2---------0---------|
C|--0------------------0----------------------0----------0---------------------|
G|-------------------------3---------1----0-------------------3--------1---0---|
C|-----------------------------------------------------------------------------|

then...

Gtr. 1 (1:17,3:20) w/dist and modulation effect
D|--10-10-10-10----8-8-8-8-8---------------------10-10-10-10~--|
A|---x--x--x--x----x-x-x-x-x----------------------x--x--x--x---|
F|---7--7--7--7----5-5-5-5-5----9-9-9-9-----------7--7--7--7~--|
C|------------------------------x-x-x-x------------------------|
G|------------------------------7-7-7-7------------------------|
C|-------------------------------------------------------------|

Gtr. 2 (1:17,3:20) w/dist and modulation effect
D|-------------------------------------------------------------|
A|-------------------------------------------------------------|
F|---7--7--7--7----7-------7-5-5/15-15-15-14-14-14\7-7--7--7~--|
C|---x--x--x--x----x-------x-x-x--x--x--x--x--x--x-x-x--x--x---|
G|---5--5--5--5----5-------5-3-3/13-13-13-12-12-12\5-5--5--5~--|
C|-------------------------------------------------------------|

Gtr. 1 (continued)
D|--8-8-8-8-8----------------------||---------------------------------------||
A|--x-x-x-x-x----------------------||---------------------------------------||
F|--5-5-5-5-5-----9-9-9-9-9--------||o--------------------------------------||o
C|----------------x-x-x-x-x--------||o-----------------------5~----/7----7--||o
G|----------------7-7-7-7-7--------||---0~----0-0-----0-0----3~----/7----7--||
C|---------------------------------||---0~----0-0-----0-0-----------8----7--||
pm                                            ...     ...
Gtr. 2 (continued)
D|---------------------------------||---------------------------------------||
A|---------------------------------||---------------------------------------||
F|--------5-5-/-15-15-15--14-14-14-||o--7~-------------------5~-------------||o
C|--------x-x----x--x--x---x--x--x-||o--x--------------------x-----/8----7--||o
G|--------3-3-/-13-13-13--12-12-12-||---5~----0-0-----0-0----3~----/7----7--||
C|---------------------------------||---------0-0-----0-0-------------------||
pm                                            ...     ...

1st and 2nd Choruses: (1:48,3:51)
Gtr. 1
D|-10-10-10-10-10-10-10-10--||---8-8-8-8-8-8-8-8-----------------------||
A|--x--x--x--x--x--x--x--x--||---x-x-x-x-x-x-x-x-----------------------||
F|--7--7--7--7--7--7--7--7--||o--5-5-5-5-5-5-5-5---9-9-9-9-9-9-9-9-----||o
C|--------------------------||o--------------------x-x-x-x-x-x-x-x-----||o
G|--------------------------||---------------------7-7-7-7-7-7-7-7-----||
C|--------------------------||-----------------------------------------||

Gtr. 2
D|--------------------------||-----------------------------------------||
A|--------------------------||-----------------------------------------||
F|--7~------------------7~--||o--5~---------5~-------------------------||o
C|--x-------------------x---||o--x----------x------8~------7~----------||o
G|--5~------------------5~--||---3~---------3~-----7~------7~----------||
C|--------------------------||-----------------------------------------||

Fill: (2:30,4:33)
Gtr. 1
D|----------------------------------------------------||
A|----------------------------------------------------||
F|----------------------------------------------------||o
C|--0~------------------------------------------------||o
G|--0~------------0----0-------------0----0-----------||
C|--0~------------0----0-------------0----0-----------||
pm                ......             ......

Gtr. 2
D|----------------------------------------------------||
A|----------------------------------------------------||
F|--7~------------------------------------------------||o
C|--x-------------------------------------------------||o
G|--5~------------0----0-------------0----0-----------||
C|----------------0----0-------------0----0-----------||
pm                ......             .......

End on:
D|-------|
A|-------|
F|-------|
C|-------|
G|---0~--|
C|---0~--|
"            
Hard to play? Try these video lessons and learn fast. | Correct




comments powered by Disqus
↑ Back to top | Tablatures and chords are parodies/interpretations of the original songs. You may use it for private study, scholarship, research or language learning purposes only