» » »

St Anger Tabs (ver.3)

Artists:  A B C D E F G H I J K L M N O P Q R S T U V W X Y Z # 

St Anger Tabs (ver.3)

Metallica
Rating:
0/5 (0 votes)

Hard to play? Try these video lessons and learn fast.
                This song rocks!!!! no decent tabs for it yet so here one is....Rock on


m = Palm muted
x = Dampened Note
/ = Slide To Next Note

(Dropped C) 


Riff 1
d------------------------------------------------------------
A------------------------------------------------------------
F------------------------------------------------------------
C------------------------------------------------------------
G--------------2---------2------------3-3-3------------------
C--0m-1m-2m-2m-2--2m-2m--2--0m-1m-2m-------------------------

(continued end on:)
d------------------------------------------------------------
A------------------------------------------------------------
F------------------------------------------------------------
C------------------------------------------------------------
G--------------2---------2-----------------------------------
C--0m-1m-2m-2m-2--2m-2m--2-----------------------------------


Riff 2A (Guitar 1)
d------------------------------------------------------------
A------------------------------------------------------------
F------------------------------------------------------------
C-------------------------------------3-3-3------------------
G--------------2---------2------------3-3-3------------------
C--0m-1m-2m-2m-2--2m-2m--2--0m-1m-2m-------------------------


Riff 2B (Guitar 2)
d------------------------------------------------------------
A------------------------------------------------------------
F------------------------------------------------------------
C------------------------------------------------------------
G------------------------------------------------------------
C--2-1-0--2-1-0--2-1-0--2-1-0-----2-1-0--2-1-0------2-1-0----


d------------------------------------------------------------
A------------------------------------------------------------
F------------------------------------------------------------
C------------------------------------------------------------
G------------------------------------------------------------
C--2-1-0-----2-1-0--2-1-0------2-1-0--2-1-0--2-1-0--2-1-0----


Riff 3
d------------------------------------------------------------
A------------------------------------------------------------
F------------------------------------------------------------
C--0-1-2-0-2-1-0-2-1-0-1-2--3-3-3----------------------------
G--0-1-2-0-2-1-0-2-1-0-1-2--3-3-3----------------------------
C--0-1-2-0-2-1-0-2-1-0-1-2-----------------------------------


Riff 4
d------------------------------------------------------------
A------------------------------------------------------------
F------------------------------------------------------------
C------------------------------------------------------------
G--2m-1m-0m-2m-1m-0m-2m-1m-0m-2m-1m-0m-----------------------
C--2m-1m-0m-2m-1m-0m-2m-1m-0m-2m-1m-0m-----------------------


Verse A (Guitar 1)
d------------------------------------------------------------
A--------3-------------3--------3-----3----------------------
F-----2------2-------2---2-----------------------------------
C--0-----------0---------------------------------------------
G------------------3---------2-----0-------------------------
C------------------------------------------------------------

Verse B (Guitar 2)
d------------------------------------------------------------
A------------------------------------------------------------
F-----5--7-------7--7----------------------------------------
C--7-------7-----------7-------------------------------------
G------------------------------------------------------------
C------------------------------------------------------------


Pre-Chorus 1A (Guitar 1, each hit 2 times)
d------------------------------------------------------------
A------------------------------------------------------------
F--7-7-7-7-7-7-7-7-7-7-7-7-7-7-7-7--5-5-5-5--9-9-9-9---------
C--x-x-x-x-x-x-x-x-x-x-x-x-x-x-x-x--x-x-x-x--x-x-x-x---------
G--5-5-5-5-5-5-5-5-5-5-5-5-5-5-5-5--3-3-3-3--7-7-7-7---------
C------------------------------------------------------------

Pre-Chorus 1B (Guitar 2, each hit 2 times)
d------------------------------------------------------------
A------------------------------------------------------------
F--7-7-7-7-7-7-7-7-7-7-7-7-7-7-7-7--5-5-5-5---15-15--14-14---
C--x-x-x-x-x-x-x-x-x-x-x-x-x-x-x-x--x-x-x-x----x--x---x--x---
G--5-5-5-5-5-5-5-5-5-5-5-5-5-5-5-5--3-3-3-3---13-13--12-12---
C------------------------------------------------------------


Pre-Chorus 2A (Guitar 1)
d------------------------------------------------------------
A------------------------------------------------------------
F------------------------------------------------------------
C--0--------------------10------8---7------------------------
G--0---0m-0m---0m-0m----10------8---7------------------------
C--0---0m-0m---0m-0m----10------8---7------------------------


Pre-Chorus 2B (Guitar 2)
d------------------------------------------------------------
A------------------------------------------------------------
F--7------------------5--/----9------------------------------
C--x------------------x-------x------------------------------
G--5------------------3--/----7------------------------------
C------------------------------------------------------------


Chorus A (Guitar 1)
d------------------------------------------------------------
A------------------------------------------------------------
F--7------------------5--/----9--9---------------------------
C--x------------------x-------x--x---------------------------
G--5------------------3--/----7--7---------------------------
C------------------------------------------------------------

Chorus B (Guitar 2, each hit 4 times)
d--10-10-10-10-10-10-10-10--8-8------------------------------
A--10-10-10-10-10-10-10-10--8-8------------------------------
F--------------------------------9-9-------------------------
C--------------------------------x-x-------------------------
G--------------------------------7-7-------------------------
C------------------------------------------------------------


Post-Chorus
d------------------------------------------------------------
A------------------------------------------------------------
F------------------------------------------------------------
C--0---------------------------------------------------------
G--0---0m-0m---0m-0m----0m-0m---0m-0m----0m------------------
C--0---0m-0m---0m-0m----0m-0m---0m-0m----0m------------------


Fill 
d------------------------------------------------------------
A------------------------------------------------------------
F------------------------------------------------------------
C--2--2--2--2------2--2-----2--2-----2--2------2--2--2--2----
G--2--2--2--2------2--2-----2--2-----2--2------2--2--2--2----
C--2--2--2--2------2--2-----2--2-----2--2------2--2--2--2----
            
Hard to play? Try these video lessons and learn fast. | Correct




comments powered by Disqus
↑ Back to top | Tablatures and chords are parodies/interpretations of the original songs. You may use it for private study, scholarship, research or language learning purposes only