» » »

Metallica, St Anger Bass tabs (ver.1)

Artists:  A B C D E F G H I J K L M N O P Q R S T U V W X Y Z # 

St Anger Bass tabs (ver.1)

Metallica Tabs
 Rating:
4/5 (4 votes)
St Anger lessons Tabs too difficult? Try these video lessons and learn fast
                Baixista: Robert Trujillo
Afinação: F, C, G, C,

|---|---|---|---|-----|---|---|-----|---|---|-----|---|---|-----|---|---|---|---|
|---|---|---|---|-----|---|---|-----|---|---|-----|---|---|-----|---|---|---|---|
|-3-|-3-|-3-|-3-|-----|-3-|-3-|-----|-3-|-3-|-----|-3-|-3-|-----|---|---|---|---| x1
|-3-|-3-|-3-|-3-|-----|-3-|-3-|-----|-3-|-3-|-----|-3-|-3-|-----|-0-|-0-|-0-|-0-|

|---------------------------------|
|---------------------------------|
|-----------------------------3-3-| x8
|-0-2-3-0-3-2-0-3-2-0-0-2-3-4-----|

|---|---|---|---|
|---|---|---|---|
|-3-|-3-|-3-|-3-| x1
|-3-|-3-|-3-|-3-|

|---|---|---|
|---|---|---|
|---|---|---| x1
|-0-|-4-|-0-|

|-----------|----------|------------|    |-----------|----------|
|-------0---|---0----0-|-0----10----|    |-------0---|---0----0-|
|----10-----|----------|----0-----0-| x3 |----10-----|----------| x1
|-10------8-|-8---5----|------------|    |-10------8-|-8---5----|

|---------|----------|--------------|------|-----|
|-7-7-7-7-|-7-7-7-7/-|-10-10-10-10\-|-8-8\-|-7-7-|
|---------|----------|--------------|------|-----| x4
|---------|----------|--------------|------|-----|

|---|---|-----|-----|-----|----|---|---|-----|---|-----|-----|-----|----|---|---|
|---|-7-|-----|-----|-----|----|---|---|-----|---|-----|-----|-----|----|---|---|
|---|-5-|-----|-----|-----|----|---|---|-----|---|-----|-----|-----|----|---|---| x1
|---|-0-|-----|-0-0-|-0-0-|-10-|-8-|-7-|-----|-0-|-----|-0-0-|-0-0-|-10-|-8-|-7-|

|----------------------------------|--------------------------|----------|---------|
|-7-7-7-7-7-7-7-7-7-7-7-7-7-7-7-7/-|-10-10-10-10-10-10-10-10\-|-8-8-8-8\-|-7-7-7-7-|
|----------------------------------|--------------------------|----------|---------| |----------------------------------|--------------------------|----------|---------|

|---|---|-----|-----|-----|-----|-----|---|
|---|-7-|-----|-----|-----|-----|-----|---|
|---|-5-|-----|-----|-----|-----|-----|---| x1
|---|-0-|-----|-0-0-|-0-0-|-0-0-|-0-0-|-0-|

|---------------------------------|
|---------------------------------|
|-----------------------------3-3-| x8
|-0-2-3-0-3-2-0-3-2-0-0-2-3-4-----|

|---|---|---|---|
|---|---|---|---|
|-3-|-3-|-3-|-3-| x1
|-3-|-3-|-3-|-3-|

|---|---|---|
|---|---|---|
|---|---|---| x1
|-0-|-4-|-0-|

|-----------|----------|------------|    |-----------|----------|
|-------0---|---0----0-|-0----10----|    |-------0---|---0----0-|
|----10-----|----------|----0-----0-| x3 |----10-----|----------| x1
|-10------8-|-8---5----|------------|    |-10------8-|-8---5----|

|---------|----------|--------------|------|-----|
|-7-7-7-7-|-7-7-7-7/-|-10-10-10-10\-|-8-8\-|-7-7-|
|---------|----------|--------------|------|-----| x4
|---------|----------|--------------|------|-----|

|---|---|-----|-----|-----|----|---|---|-----|---|-----|-----|-----|----|---|---|
|---|-7-|-----|-----|-----|----|---|---|-----|---|-----|-----|-----|----|---|---|
|---|-5-|-----|-----|-----|----|---|---|-----|---|-----|-----|-----|----|---|---| x1
|---|-0-|-----|-0-0-|-0-0-|-10-|-8-|-7-|-----|-0-|-----|-0-0-|-0-0-|-10-|-8-|-7-|

|----------------------------------|--------------------------|----------|---------|
|-7-7-7-7-7-7-7-7-7-7-7-7-7-7-7-7/-|-10-10-10-10-10-10-10-10\-|-8-8-8-8\-|-7-7-7-7-|
|----------------------------------|--------------------------|----------|---------| |----------------------------------|--------------------------|----------|---------|

|---|---|-----|-----|-----|-----|-----|---|
|---|-7-|-----|-----|-----|-----|-----|---|
|---|-5-|-----|-----|-----|-----|-----|---| x1
|---|-0-|-----|-0-0-|-0-0-|-0-0-|-0-0-|-0-|

|---|---|---|---|-----|---|---|-----|---|---|-----|---|---|-----|---|---|---|---|
|---|---|---|---|-----|---|---|-----|---|---|-----|---|---|-----|---|---|---|---|
|-3-|-3-|-3-|-3-|-----|-3-|-3-|-----|-3-|-3-|-----|-3-|-3-|-----|---|---|---|---| x1
|-3-|-3-|-3-|-3-|-----|-3-|-3-|-----|-3-|-3-|-----|-3-|-3-|-----|-0-|-0-|-0-|-0-|

|---------------------------------|
|---------------------------------|
|-----------------------------3-3-| x26
|-0-2-3-0-3-2-0-3-2-0-0-2-3-4-----|

|---|---|---|---|
|---|---|---|---|
|-3-|-3-|-3-|-3-| x1
|-3-|-3-|-3-|-3-|

|----------------------------------|--------------------------|----------|---------|
|-7-7-7-7-7-7-7-7-7-7-7-7-7-7-7-7/-|-10-10-10-10-10-10-10-10\-|-8-8-8-8\-|-7-7-7-7-|
|----------------------------------|--------------------------|----------|---------| 
|----------------------------------|--------------------------|----------|---------|

|---|---|-----|-----|-----|-----|-----|---|
|---|-7-|-----|-----|-----|-----|-----|---|
|---|-5-|-----|-----|-----|-----|-----|---| x1
|---|-0-|-----|-0-0-|-0-0-|-0-0-|-0-0-|-0-|

|-2-|
|-0-|
|-0-| x1 Final
|-0-|
            
Submit corrections

comments powered by Disqus
↑ Back to top | Metallica Bass for St Anger. Lyrics for acoustic guitar and electric guitar. Tablatures and chords are parodies/interpretations of the original songs. You may use it for private study, scholarship, research or language learning purposes only