» » »

Metallica, St Anger Tabs (ver.2)

Artists:  A B C D E F G H I J K L M N O P Q R S T U V W X Y Z # 

St Anger Tabs (ver.2)

Metallica Tabs
 Rating:
4/5 (4 votes)
St Anger lessons Tabs too difficult? Try these video lessons and learn fast
1
                This is a cool song of the new album. 
If u get to watch the video u can see in the chorus they play a fast
up and down strumming pattern. This isn’t 100% but 
its close and since no one else has tabbed it I thought I would.

Tune your guitar down a half step then drop the E
                               

Db Ab Db Gb Bb Eb     I think !!


Key
P = pull off


Intro after the bass      
 X 7
|-------------------------------------------------------------| 
|-------------------------------------------------------------|
|--------------------------------------------------4-4-4------|
|---1-p-0--0----1-p-0--0---1-p-0--0----1-p-0--0----4-4-4------|
|---1-p-0--0----1-p-0--0---1-p-0--0----1-p-0--0----2-2-2------|
|---1-p-0--0----1-p-0--0---1-p-0--0----1-p-0--0---------------|

X 1
|---------------------------------------------------| 
|---------------------------------------------------|
|---------------------------------------------------|
|---1-p-0--0----1-p-0--0---1-p-0--0----1-p-0--0-----|
|---1-p-0--0----1-p-0--0---1-p-0--0----1-p-0--0-----|
|---1-p-0--0----1-p-0--0---1-p-0--0----1-p-0--0-----|


Verse   x 8   (Acoustic guitar)
|-------------------------------------------------| 
|-------------------------------------------------|
|-------------------------------------------------|
|---------6---6----------4------4-----------------|
|--4--4-4---4-----2--2-2----2------------7------6-|
|-------------------------------------7—------6---|

Saint Anger 'round my neck
Saint Anger 'round my neck
He never gets respect
Saint Anger 'round my neck

For the last 4 times of the verse    (light distortion)
|-------------------------------------------------------------------------| 
|-------------------------------------------------------------------------|
|-------------------------------------------------------------------------|
|--6-6-6-6---6-6-6-6--4-4-4-4--4-4-4-4------------------------------------|
|--4-4-4-4---4-4-4-4--2-2-2-2--2-2-2-2--7-7-7--7-7-77--6-6-6-6--6-6-6-6---|
|---------------------------------------7-7-7--7-7-77--6-6-6-6--6-6-6-6---|

(You flush it out, You flush it out)
Saint Anger 'round my neck
(You flush it out, You flush it out)
He never gets respect
(You flush it out, You flush it out)
Saint Anger 'round my neck
(You flush it out, You flush it out)
He never gets respect



James Guitar Part for the chorus  (heavy distortion)

|--------------------------------------------------------------------------------| 
|--------------------------------------------------------------------------------|
|-6-6-6-6-6-6-6-6-6-6-6--4-4-4-4-4-4-4-4-4-4-4-----------------------------------|
|-6-6-6-6-6-6-6-6-6-6-6--4-4-4-4-4-4-4-4-4-4-4-7-7-7-7-7-6-6-6-6-6-6-6-6-6-6-6-6-|
|-4-4-4-4-4-4-4-4-4-4-4--2-2-2-2-2-2-2-2-2-2-2-7-7-7-7-7-6-6-6-6-6-6-6-6-6-6-6-6-|
|----------------------------------------------7-7-7-7-7-6-6-6-6-6-6-6-6-6-6-6-6-|

Kirk Guitar Part for the chorus  
|---------------------------------------------------------------------------------| 
|---------------------------------------------------------------------------------|
|---6-6-6-6-6-6-6-6-6-6-6---------------------------------------------------------|
|---6-6-6-6-6-6-6-6-6-6-6-9-9-9-9-9-9-9-9-9-9-9-7-7-7-7-7-6-6-6-6-6-6-6-6-6-6-6-6-|
|---4-4-4-4-4-4-4-4-4-4-4-9-9-9-9-9-9-9-9-9-9-9-7-7-7-7-7-6-6-6-6-6-6-6-6-6-6-6-6-|
|-------------------------9-9-9-9-9-9-9-9-9-9-9-7-7-7-7-7-6-6-6-6-6-6-6-6-6-6-6-6|

f**k it all and no regrets
I hit the lights on these dark sets
I need a voice to let myself
To let myself go free
f**k it all and f**kin' no regrets
I hit the lights on these dark sets
Medallion noose, I hang myself
Saint Anger 'round my neck

James Guitar
|----------------------------------------------------------------------------------| 
|----------------------------------------------------------------------------------|
|---6-6-6-6-6-6-6-6-6-6-6--4-4-4-4-4-4-4-4-4-4-4-----------------------------------|
|---6-6-6-6-6-6-6-6-6-6-6--4-4-4-4-4-4-4-4-4-4-4-7-7-7-7-7-6-6-6-6-6-6-6-6-6-6-6-6-|
|---4-4-4-4-4-4-4-4-4-4-4--2-2-2-2-2-2-2-2-2-2-2-7-7-7-7-7-6-6-6-6-6-6-6-6-6-6-6-6-|
|------------------------------------------------7-7-7-7-7-6-6-6-6-6-6-6-6-6-6-6-6-|

Kirk Guitar 
|----------------------------------------------------------------------------------| 
|----------------------------------------------------------------------------------|
|---6-6-6-6-6-6-6-6-6-6-6----------------------------------------------------------|
|---6-6-6-6-6-6-6-6-6-6-6--9-9-9-9-9-9-9-9-9-9-9-7-7-7-7-7-6-6-6-6-6-6-6-6-6-6-6-6-|
|---4-4-4-4-4-4-4-4-4-4-4--9-9-9-9-9-9-9-9-9-9-9-7-7-7-7-7-6-6-6-6-6-6-6-6-6-6-6-6-|
|--------------------------9-9-9-9-9-9-9-9-9-9-9-7-7-7-7-7-6-6-6-6-6-6-6-6-6-6-6-6-|

I feel my world shake
Like an earth quake
It's hard to see clear
Is it me? Is it fear?

I'm madly in anger with you
I'm madly in anger with you
I'm madly in anger with you
I'm madly in anger with you

Repeat the above then comes the intro in the form of a bridge
 
Keep playing until the chorus starts again

|--------------------------------------------------------------------| 
|--------------------------------------------------------------------|
|--------------------------------------------------4-4-4-------------|
|---1-p-0--0----1-p-0--0---1-p-0--0----1-p-0--0----4-4-4-------------|
|---1-p-0--0----1-p-0--0---1-p-0--0----1-p-0--0----2-2-2-------------|
|---1-p-0--0----1-p-0--0---1-p-0--0----1-p-0--0----------------------|
            
Submit corrections

comments powered by Disqus
↑ Back to top | Metallica Tabs for St Anger. Lyrics for acoustic guitar and electric guitar. 1 Tablatures and chords are parodies/interpretations of the original songs. You may use it for private study, scholarship, research or language learning purposes only