» » »

Metallica, St Anger Bass tabs (ver.2)

Artists:  A B C D E F G H I J K L M N O P Q R S T U V W X Y Z # 

St Anger Bass tabs (ver.2)

Metallica Tabs
 Rating:
4/5 (4 votes)
St Anger lessons Tabs too difficult? Try these video lessons and learn fast
1
                Intro (0:20)
----------------|----------------|----------------|----------------|----------------|
----------------|----------------|----------------|----------------|----------------|
----------------|----------------|----------------|----------------|----------------|
-2---2---2---2--|----0------0----|---0--------0---|----0--------0--|-2---2---2---2--|

                *            PLAY 8 TIMES           *
----------------||----------------------------------||----------------|
----------------||.--------------------------------.||----------------|
----REST--------||.-------------------------3-3-3--.||----------------|
----------------||--1-2-2-1-2-1-0-2-1-0-2-1------0--||--0--0--0--0----|
             VERSE                           PRE CHORUS
*         PLAY 4 TIMES          **         PLAY 2 TIMES
||------------------------------||--------------------------------|
||.-------------------------8-7.||.---------------------10--------|
||-5--5-3-5-----0-5-3---0-5-----||.-------------------------------|
||------------------------------||-0-0-0-0-0-0-0-0-10-10--10--8--7|

                                 **         PLAY 2 TIMES          *
---------------------------------||-------------------------------||
---------------------10-----8--7.||.-----------------------------.||
--------------------------------.||.-----------------------------.||
0-0-0-0-0-0-0-0-10-10--10--8--7--||-0~----00--00---10~----8~---7~-||
                               CHORUS        
*                            PLAY 8 TIMES (ALL 8TH NOTES)                  *
||-------------------------------------------------------------------------||
||.-----------------------------------------------------------------------.||
||.-----------------------------------------------------------------------.||
||-0-0-0-0-0-0-0-0-0-0-0-0-0-0-0-0-10-10-10-10-10-10-10-10-8-8-8-8-7-7-7-7-||
     POST CHORUS
|-------------------|
|-------------------|
|-------------------|
|-0~--00--00--00--00|

                *            PLAY 8 TIMES           *
----------------||----------------------------------||----------------|
----------------||.--------------------------------.||----------------|
----REST--------||.-------------------------3-3-3--.||----------------|
----------------||--1-2-2-1-2-1-0-2-1-0-2-1------0--||--0--0--0--0----|

      VERSE                           PRE CHORUS
*         PLAY 4 TIMES          **         PLAY 2 TIMES
||------------------------------||--------------------------------|
||.-------------------------8-7.||.---------------------10--------|
||-5--5-3-5-----0-5-3---0-5-----||.-------------------------------|
||------------------------------||-0-0-0-0-0-0-0-0-10-10--10--8--7|

                                 **         PLAY 2 TIMES          *
---------------------------------||-------------------------------||
---------------------10-----8--7.||.-----------------------------.||
--------------------------------.||.-----------------------------.||
0-0-0-0-0-0-0-0-10-10--10--8--7--||-0~----00--00---10~----8~---7~-||
                               CHORUS        
*                            PLAY 8 TIMES (ALL 8th NOTES)                  *
||-------------------------------------------------------------------------||
||.-----------------------------------------------------------------------.||
||.-----------------------------------------------------------------------.||
||-0-0-0-0-0-0-0-0-0-0-0-0-0-0-0-0-10-10-10-10-10-10-10-10-8-8-8-8-7-7-7-7-||
 
     POST CHORUS
|-------------------|
|-------------------|
|-------------------|
|-0~--00--00--00--00|

REST FROM 4:38-4:57

----------------|----------------|----------------|----------------|----------------|
----------------|----------------|----------------|----------------|----------------|
----------------|----------------|----------------|----------------|----------------|
-2---2---2---2--|----0------0----|---0--------0---|----0--------0--|-2---2---2---2--|

*            PLAY 26 TIMES           *
||.--------------------------------.||------------|
||.--------------------------------.||------------|
||.-------------------------3-3-3--.||------------|
||-1-2-2-1-2-1-0-2-1-0-2-1--------0-||-0--0--0--0-|

                               CHORUS        
*                            PLAY 10 TIMES (ALL 8th NOTES)                 *
||-------------------------------------------------------------------------||
||.-----------------------------------------------------------------------.||
||.-----------------------------------------------------------------------.||
||-0-0-0-0-0-0-0-0-0-0-0-0-0-0-0-0-10-10-10-10-10-10-10-10-8-8-8-8-7-7-7-7-||

     POST CHORUS/OUTRO
|-------------------|---------|--------|
|-------------------|--REST---|--------|
|-------------------|---------|--------|
|-0~--00--00--00--00|---------|---0----|
            
Submit corrections

comments powered by Disqus
↑ Back to top | Metallica Bass for St Anger. Lyrics for acoustic guitar and electric guitar. 1 Tablatures and chords are parodies/interpretations of the original songs. You may use it for private study, scholarship, research or language learning purposes only