>
 >
Bleeding Me

Bleeding Me Bass Tabs

Metallica - Bleeding Me chords, tabs, tablatures, lyrics

Guitar lessons | Add/correct | Request | Top 50 tabs Artists:  A B C D E F G H I J K L M N O P Q R S T U V W X Y Z 0-9

Bleeding Me Bass Tabs – Metallica

CD, Sheet music, Poster

Do you like Bleeding Me? Share with your friends now
Bass TabsBass Tabs v2ChordsDrum TabsTabsTabs v2Tabs v3Ukulele
F#||------|------------------|------------------|------------------|
C#||------|------------------|------------------|------------------|
G#||------|------------------|------------------|------------------|
D#||------|------------------|------------------|------------------|


                                                                             
------------------|------------------|------------------|-------------------|
------------------|------------------|------------------|-------------------|
------------------|------------------|------------------|--------------7----|
------------------|------------------|------------------|-------------------|


                                                                   
--------------0--------|--------------------|---------------------|
--5--------4-----4-----|--2-----------------|----------2-------2--|
-----------------------|--------------------|---------------------|
-----------------------|-----------0--------|---------------0-----|


                                                                   
--------------------|---------------------|-----------------------|
--------------------|---------------------|------------2-------2--|
--------------------|-----------0---------|-----------------------|
--0--------0--------|--0-------------3----|--0------0-------0-----|


                                                                    
--------------------|--------------------|--0-----0--------0-------|
-----------2--------|-----------2--------|--------------4-----4----|
--------------------|--------------------|-------------------------|
--0-----------------|--0-----------------|-------------------------|


                                                                
--------------------|---------------------|--------------------|
--2-----------------|----------2-------2--|--------------------|
--------------------|---------------------|--------------------|
-----------0--------|---------------0-----|--0--------0--------|


                                                                   
---------------------|-----------------------|--------------------|
---------------------|---------0--2-------2--|-----------2--------|
-----------0---------|-----------------------|--------------------|
--0-------------3----|--0--------------0-----|--0-----------------|


                                                                    
--------------------|--0-----0--------0-------|--------------------|
-----------2--------|--------------4-----4----|--2-----------------|
--------------------|-------------------------|--------------------|
--0-----------------|-------------------------|-----------0--------|


                                                                 
---------------------|--------------------|---------------------|
----------2-------2--|--------------------|---------------------|
---------------------|--------------------|-----------0---------|
---------------0-----|--0--------0--------|--0-------------3----|


                                                                  
-----------------------|--------------------|--------------------|
---------0--2-------2--|-----------2--------|-----------2--------|
-----------------------|--------------------|--------------------|
--0--------------0-----|--0-----------------|--0-----------------|


                                                                     
--0-----0--------0-------|--------------------|---------------------|
--------------4-----4----|--2-----------------|----------2-------2--|
-------------------------|--------------------|---------------------|
-------------------------|-----------0--------|---------------0-----|


                                                                   
--------------------|---------------------|-----------------------|
--------------------|---------------------|---------0--2-------2--|
--------------------|-----------0---------|-----------------------|
--0--------0--------|--0-------------3----|--0--------------0-----|


                                                                    
--------------------|--------------------|--0-----0--------0-------|
-----------2--------|-----------2--------|--------------4-----4----|
--------------------|--------------------|-------------------------|
--0-----------------|--0-----------------|-------------------------|


                                                                        
-------------------------|----------------------|----------------------|
--2--2-----2--2----2--2--|--0--0----0--0--------|--0--0----0--0--------|
-------------------------|----------------------|----------------------|
--------0----------------|----------------------|----------------------|


                                                                           
-------------------------|-------------------------|----------------------|
--2--2-----2--2-------0--|--2--2-----2--2----2--2--|--0--0----0--0--------|
-------------------2-----|-------------------------|----------------------|
--------0----------------|--------0----------------|----------------------|


                                                                      
----------------------|-------------------------|--------------------|
--0--0----0--0--------|-------------------------|--2-----------------|
----------------------|--0--0--0--0--0----------|--------------------|
----------------------|-----------------0--3----|-----------0--------|


                                                                 
---------------------|--------------------|---------------------|
----------2-------2--|--------------------|---------------------|
---------------------|--------------------|-----------0---------|
---------------0-----|--0--------0--------|--0-------------3----|


                                                                  
-----------------------|--------------------|--------------------|
---------0--2-------2--|-----------2--------|-----------2--------|
-----------------------|--------------------|--------------------|
--0--------------0-----|--0-----------------|--0-----------------|


                                                                     
--0-----0--------0-------|--------------------|---------------------|
--------------4-----4----|--2-----------------|----------2-------2--|
-------------------------|--------------------|---------------------|
-------------------------|-----------0--------|---------------0-----|


                                                                   
--------------------|---------------------|-----------------------|
--------------------|---------------------|---------0--2-------2--|
--------------------|-----------0---------|-----------------------|
--0--------0--------|--0-------------3----|--0--------------0-----|


                                                                    
--------------------|--------------------|--0-----0--------0-------|
-----------2--------|-----------2--------|--------------4-----4----|
--------------------|--------------------|-------------------------|
--0-----------------|--0-----------------|-------------------------|


                                                                
--------------------|---------------------|--------------------|
--2-----------------|----------2-------2--|--------------------|
--------------------|---------------------|--------------------|
-----------0--------|---------------0-----|--0--------0--------|


                                                                   
---------------------|-----------------------|--------------------|
---------------------|---------0--2-------2--|-----------2--------|
-----------0---------|-----------------------|--------------------|
--0-------------3----|--0--------------0-----|--0-----------------|


                                                                         
--------------------|--0-----0--------0-------|-------------------------|
-----------2--------|--------------4-----4----|--2--2-----2--2----2--2--|
--------------------|-------------------------|-------------------------|
--0-----------------|-------------------------|--------0----------------|


                                                                        
----------------------|----------------------|-------------------------|
--0--0----0--0--------|--0--0----0--0--------|--2--2-----2--2-------0--|
----------------------|----------------------|-------------------2-----|
----------------------|----------------------|--------0----------------|


                                                                        
-------------------------|----------------------|----------------------|
--2--2-----2--2----2--2--|--0--0----0--0--------|--0--0----0--0--------|
-------------------------|----------------------|----------------------|
--------0----------------|----------------------|----------------------|


                                                                          
-------------------------|-----------------------|-----------------------|
-------------------------|--2----2----2----2-----|--0----0----0----0-----|
--0--0--0--0--0----------|--------------------3--|--------------------3--|
-----------------0--3----|-----------------------|-----------------------|


                                                                       
-----------------------|----------------------|-----------------------|
--0----0----0----0-----|----------------------|--2----2----2----2-----|
-----------------------|--0----0----0----0----|--------------------3--|
--------------------3--|----------------------|-----------------------|


                                                                         
-----------------------|-----------------------|------------------------|
--0----0----0----0-----|--0----0----0----0-----|------------------------|
--------------------3--|-----------------------|--0--0--0--0------------|
-----------------------|--------------------3--|--------------0----3----|


                                                                        
-----------------------|-----------------------|-----------------------|
--2----2----2----2-----|--0----0----0----0-----|--0----0----0----0-----|
--------------------3--|--------------------3--|-----------------------|
-----------------------|-----------------------|--------------------3--|


                                                                         
------------------------|-----------------------|-----------------------|
------------------------|--2----2----2----2-----|--0----0----0----0-----|
--0--0--0--0------------|--------------------3--|--------------------3--|
--------------0----3----|-----------------------|-----------------------|


                                                                           
-----------------------|------------------------|-------------------------|
--0----0----0----0-----|------------------------|--2--2-----2--2----2--2--|
-----------------------|--0--0--0--0------------|-------------------------|
--------------------3--|--------------0----3----|--------0----------------|


                                                                        
----------------------|----------------------|-------------------------|
--0--0----0--0--------|--0--0----0--0--------|--2--2-----2--2-------0--|
----------------------|----------------------|-------------------2-----|
----------------------|----------------------|--------0----------------|


                                                                        
-------------------------|----------------------|----------------------|
--2--2-----2--2----2--2--|--0--0----0--0--------|--0--0----0--0--------|
-------------------------|----------------------|----------------------|
--------0----------------|----------------------|----------------------|


                                                                       
-------------------------|------------0---------|---------------------|
-------------------------|-------2---------2----|-----------2---------|
--0--0--0--0--0----------|----------------------|---------------------|
-----------------0--3----|--0-------------------|------0---------0----|


                                                                    
------------0---------|--------------------|-------------0---------|
-------2---------2----|--------------------|--------2---------2----|
----------------------|--------------------|-----------------------|
--0-------------------|------0----3--------|--0--------------------|


                                                                   
---------------------|------------0--------|--0-----------0-------|
----------------2----|-------2-------------|-----------4-----4----|
---------------------|---------------------|----------------------|
--0----0-------------|--0------------------|--3-------------------|


                                                                    
------------0---------|---------------------|------------0---------|
-------2---------2----|-----------2---------|-------2---------2----|
----------------------|---------------------|----------------------|
--0-------------------|------0---------0----|--0-------------------|


                                                                   
--------------------|-------------0---------|---------------------|
--------------------|--------2---------2----|----------------2----|
--------------------|-----------------------|---------------------|
------0----3--------|--0--------------------|--0----0-------------|


                                                                     
------------0--------|--0-----------0-------|-----------------------|
-------2-------------|-----------4-----4----|--2----2----2----2-----|
---------------------|----------------------|--------------------3--|
--0------------------|--3-------------------|-----------------------|


                                                                       
-----------------------|-----------------------|----------------------|
--0----0----0----0-----|--0----0----0----0-----|----------------------|
--------------------3--|-----------------------|--0----0----0----0----|
-----------------------|--------------------3--|----------------------|


                                                                        
-----------------------|-----------------------|-----------------------|
--2----2----2----2-----|--0----0----0----0-----|--0----0----0----0-----|
--------------------3--|--------------------3--|-----------------------|
-----------------------|-----------------------|--------------------3--|


                                                                         
------------------------|-----------------------|-----------------------|
------------------------|--2----2----2----2-----|--0----0----0----0-----|
--0--0--0--0------------|--------------------3--|--------------------3--|
--------------0----3----|-----------------------|-----------------------|


                                                                         
-----------------------|------------------------|-----------------------|
--0----0----0----0-----|------------------------|--2----2----2----2-----|
-----------------------|--0--0--0--0------------|--------------------3--|
--------------------3--|--------------0----3----|-----------------------|


                                                                        
-----------------------|-----------------------|-----------------------|
--0----0----0----0-----|--0----0----0----0-----|-----------------------|
--------------------3--|-----------------------|--0----0----0----------|
-----------------------|--------------------3--|---------------0--3----|


                                                                             
-------------------|------------------|------------------|------------------|
-------------------|------------------|------------------|------------------|
-------------------|------------------|------------------|------------------|
--0----------------|------------------|------------------|------------------|


                                                                            
------------------|------------------|------------------|------------------|
------------------|------------------|------------------|------------------|
------------------|------------------|------------------|------------------|
------------------|------------------|------------------|------------------|


                                                                         
------------------|-------------------------|---------------------------|
------------------|--2--0-------------------|--2--2--2--0--2--2--2-2-2--|
------------------|--------3--1-------------|---------------------------|
------------------|--------------4--2--0----|---------------------------|


                                                                               
-------------------------|--------------------------|-------------------------|
--2----------2--------2--|--------2-----------------|--2----------2--------2--|
-------------------------|--------------------3--2--|-------------------------|
-------0--0-----0--0-----|--0--0-----0--0--3--------|-------0--0-----0--0-----|


                                                                                
--------------------------|-------------------------|--------------------------|
--------2-----------------|--2----------2--------2--|--------2-----------------|
--------------------3--2--|-------------------------|--------------------3--2--|
--0--0-----0--0--3--------|-------0--0-----0--0-----|--0--0-----0--0--3--------|


                                                                               
-------------------------|--------------------------|-------------------------|
--2----------2--------2--|--------2-----------------|--2----------2--------2--|
-------------------------|--------------------3--2--|-------------------------|
-------0--0-----0--0-----|--0--0-----0--0--3--------|-------0--0-----0--0-----|


                                                                                
--------------------------|-------------------------|--------------------------|
--------2-----------------|--2----------2--------2--|--------2-----------------|
--------------------3--2--|-------------------------|--------------------3--2--|
--0--0-----0--0--3--------|-------0--0-----0--0-----|--0--0-----0--0--3--------|


                                                                               
-------------------------|--------------------------|-------------------------|
--2----------2--------2--|--------2-----------------|--2----------2--------2--|
-------------------------|--------------------3--2--|-------------------------|
-------0--0-----0--0-----|--0--0-----0--0--3--------|-------0--0-----0--0-----|


                                                                           
--------------------------|-----------------------|-----------------------|
--------2-----------------|--2----2----2----2-----|--0----0----0----0-----|
--------------------3--2--|--------------------3--|--------------------3--|
--0--0-----0--0--3--------|-----------------------|-----------------------|


                                                                       
-----------------------|----------------------|-----------------------|
--0----0----0----0-----|----------------------|--2----2----2----2-----|
-----------------------|--0----0----0----0----|--------------------3--|
--------------------3--|----------------------|-----------------------|


                                                                             
---------------------------|-----------------------|------------------------|
--0----0----0----0----0----|--0----0----0----0-----|------------------------|
---------------------------|-----------------------|--0--0--0--0------------|
---------------------------|--------------------3--|--------------0----3----|


                                                                        
-----------------------|-----------------------|-----------------------|
--2----2----2----2-----|--0----0----0----0-----|--0----0----0----0-----|
--------------------3--|--------------------3--|-----------------------|
-----------------------|-----------------------|--------------------3--|


                                                                         
------------------------|-----------------------|-----------------------|
------------------------|--2----2----2----2-----|--0----0----0----0-----|
--0--0--0--0------------|--------------------3--|--------------------3--|
--------------0----3----|-----------------------|-----------------------|


                                                                          
-----------------------|-----------------------|-------------------------|
--0----0----0----0-----|-----------------------|--2----------2--------2--|
-----------------------|--0----0----0----------|-------------------------|
--------------------3--|---------------0--3----|-------0--0-----0--0-----|


                                                                                
--------------------------|-------------------------|--------------------------|
--------2-----------------|--2----------2--------2--|--------2-----------------|
--------------------3--2--|-------------------------|--------------------3--2--|
--0--0-----0--0--3--------|-------0--0-----0--0-----|--0--0-----0--0--3--------|


                                                                               
-------------------------|--------------------------|-------------------------|
--2----------2--------2--|--------2-----------------|--2----------2--------2--|
-------------------------|--------------------3--2--|-------------------------|
-------0--0-----0--0-----|--0--0-----0--0--3--------|-------0--0-----0--0-----|


                                                                             
--------------------------|------------------------|------------------------|
--------2-----------------|------------------------|------------------------|
--------------------3--2--|--2----2----2--2--2--3--|----0--0----0--3--3--0--|
--0--0-----0--0--3--------|------------------------|------------------------|


                                                                            
------------------------|------------------------|-------------------------|
------------------------|---------------0--0--2--|--2----------2--------2--|
--2----2----2--2--2--3--|----0--0----4-----------|-------------------------|
------------------------|------------------------|-------0--0-----0--0-----|


                                                                                
--------------------------|-------------------------|--------------------------|
--------2-----------------|--2----------2--------2--|--------2-----------------|
--------------------3--2--|-------------------------|--------------------3--2--|
--0--0-----0--0--3--------|-------0--0-----0--0-----|--0--0-----0--0--3--------|


                                                                               
-------------------------|--------------------------|-------------------------|
--2----------2--------2--|--------2-----------------|--2----------2--------2--|
-------------------------|--------------------3--2--|-------------------------|
-------0--0-----0--0-----|--0--0-----0--0--3--------|-------0--0-----0--0-----|


                                                                           
--------------------------|-----------------------|-----------------------|
--------2-----------------|--2----2----2----2-----|--0----0----0----0-----|
--------------------3--2--|--------------------3--|--------------------3--|
--0--0-----0--0--3--------|-----------------------|-----------------------|


                                                                       
-----------------------|----------------------|-----------------------|
--0----0----0----0-----|----------------------|--2----2----2----2-----|
-----------------------|--0----0----0----0----|--------------------3--|
--------------------3--|----------------------|-----------------------|


                                                                         
-----------------------|-----------------------|------------------------|
--0----0----0----0-----|--0----0----0----0-----|------------------------|
--------------------3--|-----------------------|--0--0--0--0------------|
-----------------------|--------------------3--|--------------0----3----|


                                                                              
-------------------|------------------|-------------------|------------------|
--2----------------|------------------|--2----------------|------------------|
-------------------|------------------|-------------------|------------------|
--0----------------|------------------|--0----------------|------------------|


                                                                              
-------------------|------------------|-------------------|------------------|
--2----------------|------------------|--2----------------|------------------|
-------------------|------------------|-------------------|------------------|
--0----------------|------------------|--0----------------|------------------|


                                                                            
------------------|------------------|------------------|------------------|
------------------|------------------|------------------|------------------|
------------------|------------------|------------------|------------------|
------------------|------------------|------------------|------------------|


                                                                            
------------------|------------------|------------------|------------------|
------------------|------------------|------------------|------------------|
------------------|------------------|------------------|------------------|
------------------|------------------|------------------|------------------|


                                                                
--------------------|---------------------|--------------------|
--2-----------------|----------2-------2--|--------------------|
--------------------|---------------------|--------------------|
-----------0--------|---------------0-----|--0--------0--------|


                                                                   
---------------------|-----------------------|--------------------|
---------------------|---------0--2-------2--|-----------2--------|
-----------0---------|-----------------------|--------------------|
--0-------------3----|--0--------------0-----|--0-----------------|


                                                                    
--------------------|--0-----0--------0-------|--------------------|
-----------2--------|--------------4-----4----|--2-----------------|
--------------------|-------------------------|--------------------|
--0-----------------|-------------------------|-----------0--------|


                                                                 
---------------------|--------------------|---------------------|
----------2-------2--|--------------------|---------------------|
---------------------|--------------------|-----------0---------|
---------------0-----|--0--------0--------|--0-------------3----|


                                                                  
-----------------------|--------------------|--------------------|
---------0--2-------2--|-----------2--------|-----------2--------|
-----------------------|--------------------|--------------------|
--0--------------0-----|--0-----------------|--0-----------------|


                                                                 
--0-----0--------0-------|-------------------|------------------|
--------------4-----4----|-------------------|------------------|
-------------------------|-------------------|------------------|
-------------------------|--0----------------|------------------|


                    
------------------||
------------------||
------------------||
------------------||





Comments


Popular Metallica tabs & chords
Cunning Stunts 2 Bass Tabs
Disposable Heroes 3 Bass Tabs
Enter Sandman 4 Bass Tabs
Run To The Hills 1 Bass Tabs
...And Justice For All 1 Tabs
All Nightmare Long 3 Tabs
Broken Beat And Scarred Intro Tabs
Nothing Else Matters 6 Tabs
Sanitarium (Welcome Home) Tabs
Creeping Death Ukulele


Song lyrics



↑ Back to top | Tablatures and chords are parodies/interpretations of the original songs. You may use it for private study, scholarship, research or language learning purposes only
© 2014 AZChords.com Contact us | Privacy policy | DMCA | Add/correct tabs | Request tabs | Top 50 tabs