» » »

Metallica, Bleeding Me Tabs (ver.3)

Artists:  A B C D E F G H I J K L M N O P Q R S T U V W X Y Z # 

Bleeding Me Tabs (ver.3)

Metallica Tabs
 Rating:
4/5 (4 votes)
Bleeding Me lessons Tabs too difficult? Try these video lessons and learn fast
                Metallica, Bleeding Me.
  
Here's the complete tab(including solo)
questions or anything else
please put tab as the subject

Tune Guitars down 1/2 step
Intro:
 Riff A
|--------------------|---------------------|-------------------|
|.-------------------|---------------------|-------------------|
|--------------------|---------------------|-------------------|
|----------5p-0------|---------------5-----|----------5p-0-----|
|.-----/7--------7~--|-----7------5-----7--|-----/7---------7--|
|---0----------------|--0----0--5----------|--0----------------|

|---------------------|--------------------|------------------------|
|---------------------|--------------------|------------------------|
|---------------------|--------------------|------------------------|
|---------------------|----------5p-0------|------------------5-----|
|---7\-------4--5\2---|------/7--------7~--|------7--------5-----7--|
|0-----0h-5-----4\3---|---0----------------|--0------0--5-----------|

|-------------------|----------------------|
|-------------------|---------------------.|
|-------------------|----------------------|
|---------5p-0------|----------------------|
|------/7-------5~--|------5-------5------.|
|--0----------------|--3-----3\-2-----2~---|

 Rhy Fig 1 (w/ Riff A)
 Slowly, let ring
|--0-----0-----|--0-----0-----|--0-----0-----|--0-----0-----|
|--8-----8-----|--8-----8--7--|--8-----8-----|--8-----8-----|
|--9-----9-----|--9-----9-----|--9-----9-----|--9-----9--7--|
|-----9-----9--|-----9--------|-----9-----9--|-----9--------|
|--------------|--------------|--------------|--------------|
|--------------|--------------|--------------|--------------|

                                               end Rhy Fig 1
|--0-----0-----|--0-----0-----|--0-----0-----|--0-----0-----|
|--8-----8-----|--8-----8--7--|--8-----8-----|--8-----8-----|
|--9-----9-----|--9-----9-----|--9-----9-----|--9-----9--7--|
|-----9-----9--|-----9--------|-----9-----9--|-----9-----7--|
|--------------|--------------|--------------|--------------|
|--------------|--------------|--------------|--------------|

|-----------------------------12--------------------------------------7--|
|.----------------------------12----------------------------------8---7-.|
|-------------------------12-----------------------------------9------9--|
|---------------------14-------------------------------------------------|
|.----------------------------------------------------------------------.|
|------------------------------------------------------------------------|
I'm Diggin' My Way.........              I'm Diggin My Way to something...

|--------------------------------------------12---|
|.-------------------------------------------12--.|
|----------------------------------------12-------|
|------------------------------------14-----------|
|.-----------------------------------------------.|
|-------------------------------------------------|
I'm Diggin My Way to Something Better....
Pre-Chorus:Guitar1
|-----------Full--------------------------------------------------------|
|-------------^----------------------------Full----Full-----------------|
|------------12-----------7--------------7--^--------^---p--------------|
|--------12-----------/9-----7--------5-----7--------7--7-5------h------|
|----14---------------------------/7-------------------------7--5-7-----|
|-----------------------------------------------------------------------|
Pre-chorus:Guitar2                  Stop here on repeat and play 2nd part    
|-----------------------------------------------------------------------|
|.----------------------------------8-----------------------8-----------|
|---------------------------7--7----7---7-----------7--7----7---7-------|
|--2--2--x--2---2----x--x---7--7-x--7---7----x--x---7--7-x--7---7--x--x-|
|.-2--2--x--2---2----x--x---5--5-x--5---5----x--x---5--5-x--5---5--x--x-|
|--0--0--x--0---0----x--x--------x-----------x--x--------x---------x--x-|
Skip this 2nd time|     (2nd part)Play seconed time:
|-----------------------|-----------------------------|
|----------------------.|-----------------------------|
|--2--2--x--2---2-------|--2--2-----2-----------------|
|--2--2--x--2---2-----5.|--2--2--x--2--2--------------|
|--0--0--x--0---0---7---|--0--0--x--0--2-----~~~~~~~--|
|-----------------------|--------x-----0---0--3-------|
Chorus:
|--------------------------------------------------------------------------|
|.------------------------------------------------------------------------.|
|-----------------------h-------------------h------------------------------|
|--/9---9---9\---x--5--5-7---7---7\--x--5--5-7---7--7\--x------h---------x-|
|.-/7---7---7\---x--5----7---5---5\--x--5----5---5--5\--x--5--5-7--7--7\-x.|
|----------------x-------------------x------------------x--5----5--5--5\-x-|
Every time except 1st,Play this after each chorus line:
|------------|
|------------|
|------------|
|------------|
|-----~~~~---|
|--0--3------|
Seconed Main Riff:
|----------------------------------------------------------|
|----------------------------------------------------------|
|---h--------------------------------------------p----h----|
|--7-9--------9----------9----------9-----h----10-9--7-9---|
|--7----------7----------7----------7----7-10----------7---|
|--0---0--0---0---0--0---0---0--0---0--0-------------------|
      pm....    pm....      pm...
*Here's That Kick Ass Solo!:
|--^------^----^----^----^------^--^-~~~~~~~~|----------------------------------|
|--5------8---10---12---15-----15-15---------|----------------------------------|
|--7-----10---12---14---17-----17-17---------|-------------12-12--------12------|
|-Full--Full-Full-Full-Up&Down---------------|-------------12-12------------12--|
|--------------------------------------------|-12-12-14-14--------14-~----------|
|--------------------------------------------|----------------------------------|
*Only bend bottoms Notes Full                  pm.........|

|-------------------------------|---------------------------|
|-------------------------------|---------------------------|
|----h----------14--12----------|--x--x-x-------------------|
|-(12)14--14-~----------14--12--|--x--x-x-12--14-~---14-12--|
|-------------------------------|---------------------------|
|-------------------------------|---------------------------|

|-----------------------1/4---|---------------------------|----------------------|
|------------------------^----|-------1/2-----------------|----------------------|
|-----------------------12----|-x--x---^---------12-------|----------------14----|
|-(12)--14--14--14--12--12----|-x--x--12---14-~--14--12-~-|-(12)--14--14-~-14----|
|-----------------------------|---------------------------|-------------------12-|
|--------------------------12-|---------------------------|----------------------|

|---------------^-----------------^--|-------------------------------|
|--------------14-------------x--14--|--12---------------------------|
|-12-------x---14---12--------x--14--|--12-------------h-------------|
|----14-~--x---1/2-----14-~------1/2-|-----14--12----12-14-~--12-----|
|------------------------------------|------------14-------------14--|
|------------------------------------|-------------------------------|
 
 
|-15--12----12---------------------------Full------|
|--------15----15--12----12----------------^-------|
|---------------------14----14--12----12--14-~-~---|
|----------------------------------14---Hold Bend--|
|--------------------------------------------------|
|--------------------------------------------------|
 
|--------------------------------------------------------|
|---------------------p----------------------------------|
|-14-(Bring-Down-Here)-14----12--14----------12----------|
|-------------------------14----------14--12-----14-~-~--|
|--------------------------------------------------------|
|--------------------------------------------------------|
 
 
     h  p
|--12-15-12---12--^----12----------^--12---p----|
|----------15----15-~-----15--12--15-----15-12--|
|---------------Full-------------Full-----------|
|-----------------------------------------------|
|-----------------------------------------------|
|-----------------------------------------------|

|---^--12---p-------------p--------------p--------------p----|
|--15-----15-12--12--12-15-12--12--12--15-12--12--12--15-12--|
|------------------------------------------------------------|
|------------------------------------------------------------|
|------------------------------------------------------------|
|------------------------------------------------------------|

|----------p--------h--p--------h--p-----p------h--p--------h--p----|
|-----12-15-12----12-15-12----12-15-12-15-12--12-15-12----12-15-12--|
|--14----------14----------14---------------14---------14-----------|
|-------------------------------------------------------------------|
|-------------------------------------------------------------------|
|-------------------------------------------------------------------|

                                                   Tremolo Pick this part
|------h--p--------h--p--------p-----^------^--|----------15------------|
|----12-15-12-12-12-15-12----15-12--15-----15--|--12--14--15------------|
|-14----------------------14-------Full---Full-|--12--14--15--14--------|
|----------------------------------------------|------------------------|
|----------------------------------------------|------------------------|
|----------------------------------------------|------------------------|

|---------------------------|----^-----------------------------|
|--12---14--14--15--14--12--|---15-~---15--12------------------|
|--12---14--14--15--14--12--|--Full-----------14--12-----------|
|---------------------------|------------------------14--12-~--|
|---------------------------|----------------------------------|
|---------------------------|----------------------------------|
 
 
|---^-------------------------|---^-----^------^---|-----^--------------^--|
|--15--15--12-----------------|--15----15-----15---|-0--15---0--12-----15--|
|-Full--------14--12----------|-Full---Full---Full-|-0-Full--0--12----Full-|
|--------------------14--12-~-|--------------------|---------------14------|
|-----------------------------|--------------------|-----------------------|
|-----------------------------|--------------------|-----------------------|
 
 
Half Time Feel:
|-------------------------|----------------------------------|
|-------------------------|----------------------------------|
|---h----------12--12/14--|--(14)--12--12--12/14----12--11---|
|--7-9--9--9--------------|----------------------------------|
|----7--7--7---10--10/12--|--(12)--10--10--10/12----10--9----|
|-------------------------|----------------------------------|

|--------------------^--------------|-------------------------------|
|---------------14--14------p-------|------^--15--12--^-------------|
|-(11)\-----12--14--14----14-12-----|-12--14---------14----12-------|
|-------/14--------1/2----------14--|----Full------Up&Down----14-~--|
|-(9)\------------------------------|-------------------------------|
|-----------------------------------|-------------------------------|

|-------------------------|---------------------------------|
|-------------------------|---------------------------------|
|--------9---9--12-12/14--|--(14)--12--12/14----12--11-~-~--|
|-(14)\-------------------|---------------------------------|
|--------7---7--10-10/12--|--(12)--10--10/12----10---9-~-~--|
|-------------------------|---------------------------------|

|-----------------------------|----------^---------------------|---------------|
|-----------------------------|-12--14--14-----------------^---|-12------------|
|--/12--12/14--14/16----------|-12--14--14----14--12------14---|-12--(12)\-----|
|---------------------12--14--|---------Full---------14--Full--|---------------|
|--/10--10/12--12/14----------|--------------------------------|---------------|
|-----------------------------|--------------------------------|---------------|
            
Submit corrections

comments powered by Disqus
↑ Back to top | Metallica Tabs for Bleeding Me. Lyrics for acoustic guitar and electric guitar. Tablatures and chords are parodies/interpretations of the original songs. You may use it for private study, scholarship, research or language learning purposes only