» » »

Metallica, Bleeding Me Tabs (ver.2)

Artists:  A B C D E F G H I J K L M N O P Q R S T U V W X Y Z # 

Bleeding Me Tabs (ver.2)

Metallica Tabs
 Rating:
4/5 (4 votes)
Bleeding Me lessons Tabs too difficult? Try these video lessons and learn fast
1
                (Intro)
This is my first attempt at a tab.  But this is how me and my friend 


e----------------------------------------
B----------------------------------------
G----------------------------------------
D-----------5p--------------5------------
A-----5/7-------7---7------5---7---------
E--0-------------------0--5--------------

e----------------------------------------
B----------------------------------------
G----------------------------------------
D-----------5p---------------------------
A-----5/7-------7---7\3------h4\2--------
E--0---------------------0--h5\3---------

e----------------------------------------
B----------------------------------------
G----------------------------------------
D-----------5p--------------5------------
A-----5/7-------7---7------5---7---------
E--0-------------------0--5--------------

e----------------------------------------
B----------------------------------------
G----------------------------------------
D-----------5p---------------------------
A-----5/7------5------5--------5---------
E--0---------------3-----3--2-----3--0---
            
Submit corrections

comments powered by Disqus
↑ Back to top | Metallica Tabs for Bleeding Me. Lyrics for acoustic guitar and electric guitar. 1 Tablatures and chords are parodies/interpretations of the original songs. You may use it for private study, scholarship, research or language learning purposes only