>
 >
Bleeding Me 2

Bleeding Me 2 Bass Tabs

Metallica - Bleeding Me 2 chords, tabs, tablatures, lyrics

Guitar lessons | Add/correct | Request | Top 50 tabs Artists:  A B C D E F G H I J K L M N O P Q R S T U V W X Y Z 0-9

Bleeding Me 2 Bass Tabs – Metallica

CD, Sheet music, Poster

Do you like Bleeding Me 2? Share with your friends now
Bass TabsBass Tabs v2ChordsDrum TabsTabsTabs v2Tabs v3Ukulele
Band: MetallicA

Original Tab Steve Gorenberg
Tune down 1/2 step
------------------------------ Bass Tab -------------------------------
Time 4/4
beat 116	

Intro:
:--------------------------------|--------------------------------|
:-------------Guitar-------------|--------------------------------|
:---------------x6---------------|-----------------------------5-/|
:--------------------------------|--------------------------------|

|--------------------------------|--------------------------------|
|--------------------------------|--------------------------------|
|10------------------9-h-10---9-\|-7------------------------------|
|--------------------------------|-----------------0--------------|

|--------------------------------|--------------------------------|
|--------------------------------|--------------------------------|
|--------------------------------|--------------------------------|
|(0)-----------------------------|(0)-----------------------------|

|--------------------------------|--------------------------------|
|---------------------7----------|--------------------------------|
|-------------7-/-9------10---\--|-7------------------------------|
|(0)-----------------------------|-----------------0--------------|

|--------------------------------|--------------------------------|
|--------------------------------|--------------------------------|
|--------------------------------|-7-----------------------------/|
|(0)-----------------------------|-----------------0--------------|

                                  From end of 1st verse
|--------------------------------|--------------------------------|
|--------------------------------|*-------------------------------|
|10------10--10---9-h10-p-9---\--|*7------------------------------|
|--------------------------------|-0---------------0--------------|

|--------------------------------|--------------------------------|
|---------------------7----------|--------------------------------|
|-------------7-/-9------10---\--|-7------------------------------|
|(0)-----------------------------|-----------------0--------------|

|--------------------------------|--------------------------------|
|--------------------------------|--------------------------------|
|--------------------------------|-7------------------------------|
|(0)-----------------------------|-----------------0--------------|

|--------------------------------:
|--------------------------------:
|10------10--10---9-h10-p-9---\--:
|--------------------------------:

Verse 1, 2:
:--------------------------------|--------------------------------|
:--------------------------------|--------------------------------|
:-7\----------0------------------|-------------0-----------5------|
:---------0-------0--------------|(0)------0-------2-/-3-------3--|

|--------------------------------|--------------------------------|
|--------------------------------|--------------------------------|
|-------------0------------------|-------------0-------0----------|
|(3)\-2---0-------0--------------|(0)------0------/2-------3------|

|--------------------------------|--------------------------------|
|--------------------------------|--------------------------------|
|-------------0------------------|-------------0-----------5------|
|(3)\-----0-------0--------------|(0)------0-------2-/-3-------3--|

|--------------------------------|--------------------------------|
|--------------------------------|--------------------------------|
|-------------0------------------|--------------------------------|
|(3)\-2---0-------0---0-0-0------|/3-------3-------2-h-3---2---\--|

|--------------------------------|--------------------------------|
|--------------------------------|--------------------------------|
|-------------0------------------|-------------0-------0----------|
|-1---0---0-------0--------------|(0)------0------/2-------3------|

|--------------------------------|--------------------------------|
|--------------------------------|--------------------------------|
|-------------0------------------|-------------0-----------5------|
|(3)--\---0-------0--------------|(0)------0-------2-/-3-------3--|

|--------------------------------|--------------------------------|
|--------------------------------|--------------------------------|
|-------------0------------------|--------------------------------|
|(3)\-2---0-------0-------0---0--|/3---3---3---3---2-h-3---2---2--|

|--------------------------------|--------------------------------|
|--------------------------------|-7---7-------7---7-------7\-----|
|-7---7-------7---7-------7\0h2-/|-5---5---x---5---5---x---5\0h2-/|
|-0---0---x---0---0---x---0------|--------------------------------|

|--------------------------------|--------------------------------|
|-7---7-------7---7-------7\-----|--------------------------------|
|-5---5---x---5---5---x---5\-----|-5-/-7-------7---7\------2---5--|
|--------------------------------|-0-------x---0---0--------------|

|--------------------------------|--------------------------------|
|--------------------------------|-7---7-------7---7-------7\-----|
|-5-/-7-------7---7-------7\0h2-/|-5---5---x---5---5---x---5\0h2-/|
|-0-------x---0---0---x---0------|--------------------------------|

1.
|--------------------------------|--------------------------------|
|-7---7-------7---7--------------|-------------------------------*|
|-5---5---x---5---5---5---3\2p0-/|-------------------------------*|
|--------------------------------|-5-5-5-------5-5-5-------3------|

2.
|--------------------------------|--------------------------------:
|-7---7-------7---7------(7)--\--|--------------------------------:
|-5---5---x---5---5------(5)--\--|->--------------->--------------:
|--------------------------------|-5---5-5-5-5-5---5--5--5-3---\--:

Chorus (After 2nd verse):

Fig. 1
:--------------------------------|--------------------------------|
:--------------------------------|--------------------------------|
:-2-------2-------2--------------|-5-------5-------5--------------|
:-0---0---0---0---0-----------3-/|-5-------5-------5-----------3-/|

|--------------------------------|--------------------------------|
|--------------------------------|--------------------------------|
|-5-------5---5---5-----------5--|-7-------7---7---7--------------|
|-5-------5---5---5-----------5--|-5-------5---5---5---0---3--(3)\|

|--------------------------------|--------------------------------|
|--------------------------------|--------------------------------|
|-2-------2-------2--------------|-5-------5-------5--------------|
|-0---0---0---0---0-----------3-/|-5-------5-------5-----------3-/|

|--------------------------------|--------------------------------|
|--------------------------------|--------------------------------|
|-5-------5---5---5-----------5--|-7-------7---7---7--------------|
|-5-------5---5---5-----------5--|-5-------5---5---5---0---3--(3)\|

|--------------------------------|--------------------------------|
|--------------------------------|--------------------------------|
|-2-------2-------2-/-3-\-2---0--|-5-------5-------5--------------|
|-0---0---0---0---0--------------|-5-------5-------5-----------3-/|

|--------------------------------|--------------------------------|
|--------------------------------|--------------------------------|
|-5-------5---5---5-----------5--|-7-------7---7---7--------------|
|-5-------5---5---5-----------5--|-5-------5---5---5---0---3--(3)\|

|--------------------------------|--------------------------------|
|--------------------------------|--------------------------------|
|-2-------2-------2-/-3-\-2---0--|-5-------5-------5--------------|
|-0---0---0---0---0--------------|-5-------5-------5-----------3-/|

                          To Coda*                       end Fig.1|
|--------------------------------|--------------------------------|
|--------------------------------|--------------------------------|
|-5-------5---5---5-----------5--|-7-------7---7---7--------------|
|-5-------5---5---5-----------5--|-5-------5---5---5---0---3--(3)\|

|--------------------------------|--------------------------------|
|--------------------------------|-7---7-------7---7-------7\-----|
|-7---7-------7---7-------7\0h2-/|-5---5---x---5---5---x---5\0h2-/|
|-0---0---x---0---0---x---0------|--------------------------------|

|--------------------------------|--------------------------------|
|-7---7-------7---7------(7)--\--|->--------------->--------------|
|-5---5---x---5---5------(5)--\--|-7---------------7-\-0-2-2-5-5--|
|--------------------------------|-0-----0-0-0-0-0-0--------------|

|--------------------------------|--------------------------------|
|--------------------------------|-7---7-------7---7-------7\-----|
|-5-/-7-------7---7-------7\0h2-/|-5---5---x---5---5---x---5\0h2-/|
|-0-------x---0---0---x---0------|--------------------------------|

|--------------------------------|--------------------------------:
|-7---7-------7---7-------7\-----|--------------------------------:
|-5---5---x---5---5-------5\-----|--------------------------------:
|--------------------------------|-5----5-5---5--5---5-----3------:

Interlude:
:--------------------------------|--------------------------------|
:*-------------------------------|--------------------------------|
:*7------------------------------|--------------------------------|
:-0---------------0--------------|(0)-----------------------------|

|--------------------------------|--------------------------------|
|--------------------------------|---------------------7----------|
|-7------------------------------|-------------7-/-9------10---\--|
|-----------------0--------------|(0)-----------------------------|

|--------------------------------|--------------------------------|
|--------------------------------|--------------------------------|
|-7------------------------------|--------------------------------|
|-----------------0--------------|(0)-----------------------------|

                                  1. 
|--------------------------------|--------------------------------|
|--------------------------------|-------------------------------*|
|-7------------------------------|10------10--10---9-h10-p-9---\-*|
|-----------------0--------------|--------------------------------|

                                  2.
                                 |--------------------------------:
                                 |--------------------------------:
                                 |10------10--10---9--10---9---\--:
                                 |--------------------------------:

Repeat Chorus Until to Coda

Coda:
:--------------------------------|--------------------------------|
:--------------------------------|--------------------------------|
:-7---7---7---7---7--------------|--------------------------------|
:-5---5---5---5---5---0---3------|-0------------------------------|

|--------------------------------|--------------------------------|
|--------------------------------|--------------------------------|
|--------------------------------|--------------------------------|
|(0)-----------------------------|(0)-----------------------------|

|--------------------------------|--------------------------------|
|--------------------------------|-------------Guitar-------------|
|--------------------------------|---------------x6---------------|
|(0)-----------------------------|--------------------------------|

|--------------------------------|--------------------------------|
|--------------------------------|--------------------------------|
|--------------------------------|->--->--->------->--->--->--->--|
|12-------\-------0--------------|12--12--12\-----12--12-/12--12--|

|Fig.2                                                   end Fig.2|
|--------------------------------|--------------------------------:
|*-------------------------------|-------------------------------*: x 4
|*-------------------------------|-------------------------3-----*:
|-0--0-0--0---2---0-------5---0--|-----3---0---5---0---3-------3--:

Bridge:

   Repeat Fig.2 x 4

Chorus:

   Repeat Fig.1

Guitar Solo:
                               x 6
:--------------------------------|--------------------------------|
:*------------------------------*|--------------------------------|
:*------------------------------*|--------------------------------|
:-0---0---0---0---0---0---0---0--|-0---0---0---0---0---0---0---0--|

|--------------------------------|--------------------------------|
|--------------------------------|--------------------------------|
|-----------------------------0--|-2-------2---2---2---2---2---3--|
|-0---0---0---0---0---0---0------|--------------------------------|

|--------------------------------|--------------------------------|
|--------------------------------|--------------------------------|
|-----0---0-------0---3---3---0--|-2-------2---2---2---2---2---3--|
|--------------------------------|--------------------------------|

|--------------------------------|--------------------------------|
|--------------------------------|          Repeat Fig.2          |
|-----0---0-------0---5---5-/-7--|               x 4              |
|--------------------------------|--------------------------------|

|--------------------------------|--------------------------------|
|*-------------------------------|-------------------------------*| x 3
|*-------------------------------|-------------------------------*|
|-0------------------------------|(0)-----------------------------|

|--------------------------------|--------------------------------|
|--------------------------------|--------------------------------|
|--------------------------------|10------10--10---9--10---9------|
|-0------------------------------|--------------------------------|

|--------------------------------|--------------------------------|
|-------------Guitar-------------|--------------------------------|
|---------------x6---------------|-----------------------------5-/|
|--------------------------------|--------------------------------|

|--------------------------------:
|--------------------------------:
|10------10--10---9-h10-p-9---\--:
|--------------------------------:

Verse 3:
:--------------------------------|--------------------------------|
:--------------------------------|--------------------------------|
:-7------------------------------|--------------------------------|
:-----------------7--------------|-0------------------------------|

|--------------------------------|--------------------------------|
|--------------------------------|---------------------7----------|
|-7------------------------------|-------------7-/-9------10---\--|
|-----------------0--------------|-0------------------------------|

|--------------------------------|--------------------------------|
|--------------------------------|--------------------------------|
|-7------------------------------|--------------------------------|
|-----------------0--------------|-0------------------------------|

|--------------------------------|--------------------------------|
|--------------------------------|--------------------------------|
|-7------------------------------|10------10--10---9-h10-p-9---\--|
|-----------------0--------------|--------------------------------|

|--------------------------------|--------------------------------|
|--------------------------------|--------------------------------|
|-7------------------------------|--------------------------------|
|-----------------0--------------|-0------------------------------|

|--------------------------------|--------------------------------|
|--------------------------------|---------------------7----------|
|-7------------------------------|-------------7-/-9------10---\--|
|-----------------0--------------|-0------------------------------|

|--------------------------------|--------------------------------|
|--------------------------------|--------------------------------|
|-7------------------------------|--------------------------------|
|-----------------7--------------|-0------------------------------|

|--------------------------------|--------------------------------|
|--------------------------------|--------------------------------|
|-7------------------------------|10------10--10---9--10---9------|
|-----------------0--------------|--------------------------------|

|--------------------------------|--------------------------------:
|--------------------------------|--------------------------------:
|-7------------------------------|(7)-----------------------------:
|-0------------------------------|(0)-----------------------------: End

-----------------------------------------------------------------------





Comments


Popular Metallica tabs & chords
I Disappear 2 Bass Tabs
Hero Of The Day Chords
Holier Than Thou Chords
Battery 5 Tabs
Blues Jam 1 Tabs
Dirty Window 4 Tabs
Last Caress 1 Tabs
Master Of Puppets Harmonic Tabs
One Solo Correct Tabs
Real Fuel Intro Tabs


Song lyrics



↑ Back to top | Tablatures and chords are parodies/interpretations of the original songs. You may use it for private study, scholarship, research or language learning purposes only
© 2014 AZChords.com Contact us | Privacy policy | DMCA | Add/correct tabs | Request tabs | Top 50 tabs