>
 >
Corridor Of Chameleons 1

Corridor Of Chameleons 1 Guitar Tabs

Meshuggah - Corridor Of Chameleons 1 chords, tabs, tablatures, lyrics

Guitar lessons | Add/correct | Request | Top 50 tabs Artists:  A B C D E F G H I J K L M N O P Q R S T U V W X Y Z 0-9

Corridor Of Chameleons 1 Guitar Tabs – Meshuggah

CD, Sheet music, Poster

Do you like Corridor Of Chameleons 1? Share with your friends now
Bass TabsTabsTabs v2Tabs v3

CORRIDOR OF CHAMELEONS
As recorded by Meshuggah
(From the 1998 Album CHAOSPHERE)

        

Words by Tomas Haake Music by Meshuggah

Gtr I (A# D# G# C# F# A# D#) - 'Untitled'
Gtr II (A# D# G# C# F# A# D#) - 'Untitled'

   Verse
    Q=170
    E5
   4/4
    Gtr I
    S S S S S S S E. S S S S S S
||-------------------------------|
||-------------------------------|
||o------------------------------|
||-------------------------------|
||o-2-2-2-2-2-2-2----2-2-2-2-2-2-|
||--0-0-0-0-0-0-0----0-0-0-0-0-0-|
||-------------------------------|


  S E. S S S S S S S E. S S   S S S S S E. S S S S S S S S
|---------------------------|-------------------------------|
|---------------------------|-------------------------------|
|---------------------------|-------------------------------|
|---------------------------|-------------------------------|
|-2----2-2-2-2-2-2-2----2-2-|-2-2-2-2-2----2-2-2-2-2-2-2----|
|-0----0-0-0-0-0-0-0----0-0-|-0-0-0-0-0----0-0-0-0-0-0-0----|
|---------------------------|-------------------------------|


  E S S S S S S S E. S S S S  4x
|-----------------------------||-|
|-----------------------------||-|
|----------------------------o||-|
|-----------------------------||-|
|---2-2-2-2-2-2-2----2-2-2-2-o||-|
|---0-0-0-0-0-0-0----0-0-0-0--||-|
|-----------------------------||-|


    F#5
    S S S S S S S E. S S S S S S   S E. S S S S S S S E. S S   3x
||-------------------------------|-----------------------------||
||-------------------------------|-----------------------------||
||o------------------------------|----------------------------o||
||-------------------------------|-----------------------------||
||o-4-4-4-4-4-4-4----4-4-4-4-4-4-|-4----4-4-4-4-4-4-4----4-4--o||
||--2-2-2-2-2-2-2----2-2-2-2-2-2-|-2----2-2-2-2-2-2-2----2-2---||
||-------------------------------|-----------------------------||


    E5
    S S S S S S S E. S S S S S S
||-------------------------------|
||-------------------------------|
||o------------------------------|
||-------------------------------|
||o-2-2-2-2-2-2-2----2-2-2-2-2-2-|
||--0-0-0-0-0-0-0----0-0-0-0-0-0-|
||-------------------------------|


  S E. S S S S S S S E. S S   S S S S S E. S S S S S S S S
|---------------------------|------------------------------|
|---------------------------|------------------------------|
|---------------------------|------------------------------|
|---------------------------|------------------------------|
|-2----2-2-2-2-2-2-2----2-2-|-2-2-2-2-2----2-2-2-2-2-2-2---|
|-0----0-0-0-0-0-0-0----0-0-|-0-0-0-0-0----0-0-0-0-0-0-0---|
|---------------------------|------------------------------|


                                    Interlude
                                     N.C. D5   N.C. D5        N.C. D5   N.C.
  E S S S S S S S E. S S S S  3x     Q    Q  E Q    E   +E  E Q    Q  E E
|-----------------------------||-||-------------------|---------------------|
|-----------------------------||-||-------------------|---------------------|
|----------------------------o||-||o------------------|---------------------|
|-----------------------------||-||-------------------|---------------------|
|---2-2-2-2-2-2-2----2-2-2-2-o||-||o------------------|---------------------|
|---0-0-0-0-0-0-0----0-0-0-0--||-||-------5--5------5-|-(5)-5------5--5-----|
|-----------------------------||-||--3b4--3--3-3b4--3-|-(3)-3-3b4--3--3-3b4-|


        D5   N.C. D5        N.C. D5   N.C.
  Gtr I
  +E    Q  E Q    E +E    E Q    Q  E Q     3x
|-----------------------|-------------------||-||
|-----------------------|-------------------||-||
|-----------------------|------------------o||-||
|-----------------------|-------------------||-||
|-----------------------|------------------o||-||
|-------5--5------5-(5)-|-5------5--5-------||-||
|-(3)b4-3--3-3b4--3-(3)-|-3-3b4--3--3-3b4---||-||
|
| Gtr II
|  W                      W                 3x
|-----------------------|-------------------||-||
|-----------------------|-------------------||-||
|-----------------------|------------------o||-||
|-----------------------|-------------------||-||
|-----------------------|------------------o||-||
|-----------------------|-------------------||-||
|-----------------------|-------------------||-||


 Guitar Solo
  N.C.   C#5  N.C.     C#5            N.C. C#5   N.C.      C#5
   Q     Q  E Q         E       +E  E Q     E    Q         E
|----------------------------|-------------------------------|
|----------------------------|-------------------------------|
|----------------------------|-------------------------------|
|----------------------------|-------------------------------|
|----------------------------|-------------------------------|
|--------4--4-----------4----|--(4)-4-------4--------------4-|
|--2b3---2--2-2b3-------2----|--(2)-2-2b3---2----2b3-------2-|
|
|  H.              +E   E       +H          Q         Q
|-21b22-----------(21)-21b22-|-(21)--------21b22-----21b22---|
|----------------------------|-------------------------------|
|----------------------------|-------------------------------|
|----------------------------|-------------------------------|
|----------------------------|-------------------------------|
|----------------------------|-------------------------------|
|----------------------------|-------------------------------|


          N.C. C#5          N.C.       C#5  N.C.
  +E    E Q    Q  Q      E   Q         Q  E Q
|--------------------|---------------------------|
|--------------------|---------------------------|
|--------------------|---------------------------|
|--------------------|---------------------------|
|--------------------|---------------------------|
|-(4)---4------4--4--|---4-------------4--4------|
|-(2)---2-2b3--2--2--|---2---2b3-------2--2-2b3--|
|
|  W                    +E   E     +H.
|-21b22--------------|-(21)-21b22-(21)-----------|
|--------------------|---------------------------|
|--------------------|---------------------------|
|--------------------|---------------------------|
|--------------------|---------------------------|
|--------------------|---------------------------|
|--------------------|---------------------------|


  C#5             N.C. C#N.C.   C#5     N.C.     C#5
    Q        E    Q    E Q        Q   E Q         Q     E
|-----------------------------|----------------------------|
|-----------------------------|----------------------------|
|-----------------------------|----------------------------|
|-----------------------------|----------------------------|
|-----------------------------|----------------------------|
|---4--------4---------4------|---4---4-----------4-----4--|
|---2--------2----2b3--2-2b3--|---2---2-2b3-------2-----2--|
|
|  +Q        H.                  +H          +E   Q.
|-(21)pb22--21b22-------------|-(21)--------(21)-21b22-----|
|-----------------------------|----------------------------|
|-----------------------------|----------------------------|
|-----------------------------|----------------------------|
|-----------------------------|----------------------------|
|-----------------------------|----------------------------|
|-----------------------------|----------------------------|


          N.C. C#5     N.C.           C#5  N.C. C#5
  +E    E Q    Q    E   E       +E    Q  E Q    E E
|----------------------------|----------------------||
|----------------------------|----------------------||
|----------------------------|----------------------||
|----------------------------|----------------------||
|----------------------------|----------------------||
|-(4)---4------4----4--------|--------4--4------4-4-||
|-(2)---2-2b3--2----2---2b3--|--(2)b3-2--2-2b3--2-2-||
|
|                                          \4/
|  H.              +E   E       +H         H
|-21b22-----------(21)-21b22-|-(21)-----------------||
|----------------------------|-------------x--------||
|----------------------------|-------------x--------||
|----------------------------|-------------0--------||
|----------------------------|-------------0--------||
|----------------------------|----------------------||
|----------------------------|----------------------||


  N.C.        C#5           N.C.       C#5             N.C.       C#5  N.C.       C#5
   Q          Q        E    Q          E      E    E   Q           E   Q           E
|-------------------------------------------|---------------------------------------------|
|-------------------------------------------|---------------------------------------------|
|-------------------------------------------|---------------------------------------------|
|-------------------------------------------|---------------------------------------------|
|-------------------------------------------|---------------------------------------------|
|-------------4--------4---------------4----|-4----4---------------4---------------4------|
|--2b3--------2--------2----2b3--------2----|-2----2---2b3---------2---2b3---------2------|
|
|  T        T      T      T        T      T        T        T      T        T      T
|  S   S S  S S S  S S S  S S   S  S S S  S   S S  S S S    S S S  S S S    S S S  S S
|----------------------------------------18-|-8------------18-8------------18-8-----------|
|----------18-8----------18-8---------------|---------------------------------------------|
|-17---8h9------9-17-8h9--------9-17-8h9----|---9-17-8h9--------9-17-8h9--------9-17-8h===|
|-------------------------------------------|---------------------------------------------|
|-------------------------------------------|---------------------------------------------|
|-------------------------------------------|---------------------------------------------|
|-------------------------------------------|---------------------------------------------|


           N.C.        C#5
  E    E    Q          Q          Q
|-------------------------------------------|
|-------------------------------------------|
|-------------------------------------------|
|-------------------------------------------|
|-------------------------------------------|
|-4----4---------------4----------4---------|
|-2----2----2b3--------2----------2---------|
|
|    T      T        T       T       T
| S  S S S  S   S S  S S  S  S S  S  S S  S
|---18-8------------17-8--------------------|
|-----------------------------------17-9h10-|
|-9------9-17---8h9------11-18-8h12---------|
|-------------------------------------------|
|-------------------------------------------|
|-------------------------------------------|
|-------------------------------------------|


        N.C.          C#5               N.C.
   E     Q             Q           E     Q
|------------------------------------------------------|
|------------------------------------------------------|
|------------------------------------------------------|
|------------------------------------------------------|
|------------------------------------------------------|
|--4-------------------4-----------4-------------------|
|--2-----2b3-----------2-----------2-----2b3-----------|
|
|  T          T        T        T        T          T
|  S  S  S    S  S  S  S  S  S  S  S  S  S    S  S  S
|------------------------------------------------------|
|---------------------19-13-------------20---13--------|
|-18-11------------------------------------------------|
|-------14---19-12h15-------16-20-13h16---------16-20--|
|------------------------------------------------------|
|------------------------------------------------------|
|------------------------------------------------------|


  C#5               N.C.          C#5   N.C.
   Q           E     Q             E     Q
|-----------------------------------------------------|
|-----------------------------------------------------|
|-----------------------------------------------------|
|-----------------------------------------------------|
|-----------------------------------------------------|
|--4-----------4-------------------4------------------|
|--2-----------2-----2b3-----------2-----2b3----------|
|
|        T     T     T          T        T          T
|  S  S  S  S  S  S  S    S  S  S  S  S  S    S  S  S
|-----------------------------------------------------|
|-------20-13-20-13------------20-13h15------------20-|
|-----------------------------------------------------|
|-13h16-------------20---13h16----------20---13h16----|
|-----------------------------------------------------|
|-----------------------------------------------------|
|-----------------------------------------------------|


  C#5               N.C.          C#5
   Q           E     Q             Q           E
|----------------------------------------------------|
|----------------------------------------------------|
|----------------------------------------------------|
|----------------------------------------------------|
|----------------------------------------------------|
|--4-----------4-------------------4-----------4-----|
|--2-----------2-----2b3-----------2-----------2-----|
|
|     T     T        T          T        T        T
|  S  S  S  S  S  S  S    S  S  S  S  S  S  S  S  S
|----------------------------------------------------|
|-13-20-13----------20---13----------------------19--|
|----------------------------------------------------|
|----------20-13h16---------16-20-13h16-19-13h15-----|
|----------------------------------------------------|
|----------------------------------------------------|
|----------------------------------------------------|


  C#5         N.C.       C#5            N.C.
   E     E     Q          Q        E     E
|-----------------------------------------------|
|-----------------------------------------------|
|-----------------------------------------------|
|-----------------------------------------------|
|-----------------------------------------------|
|--4-----4----------------4--------4------------|
|--2-----2-----2b3--------2--------2-----2b3----|
|
|        T          T     T        T     T
|  S  S  S  S  E    S  S  S  S  E  S  S  S    S
|-----------------------------------------------|
|-12--------------------------------------------|
|----16-19-11h13---19-12-19-10h11-19-11-19---10h|
|-----------------------------------------------|
|-----------------------------------------------|
|-----------------------------------------------|
|-----------------------------------------------|


          C#5
   E       Q           E    Q    Q
|-----------------------------------||
|-----------------------------------||
|-----------------------------------||
|-----------------------------------||
|-----------------------------------||
|----------4-----------4----4-------||
|--2b3-----2-----------2----2-------||
|
|                           \4/
|          T     T
|  S    S  S  S  S  S  S  S H
|-----------------------------------||
|------12----------------12-x-------||
|-11------19-11-19-10h11----x-------||
|---------------------------0-------||
|---------------------------0-------||
|-----------------------------------||
|-----------------------------------||


    N.C. C#5  N.C. C#5       N.C. C#N.C. C#5
    Q    Q  E Q    E   +E  E Q    E Q    E
||-------------------|---------------------|
||-------------------|---------------------|
||o------------------|---------------------|
||-------------------|---------------------|
||o------------------|---------------------|
||-------4--4------4-|-(4)-4------4------4-|
||--2b3--2--2-2b3--2-|-(2)-2-2b3--2-2b3--2-|
|
|   W                  +W
||-------------------|---------------------|
||--5----------------|-(5)-----------------|
||o------------------|---------------------|
||-------------------|---------------------|
||o------------------|---------------------|
||-------------------|---------------------|
||-------------------|---------------------|


        N.C. C#5         N.C. C#5  N.C.   C#5  N.C. C#N.C.
  +E  E Q    Q  Q     E  Q    Q  E Q      Q  E Q    E Q
|------------------|--------------------|-------------------|
|------------------|--------------------|-------------------|
|------------------|--------------------|-------------------|
|------------------|--------------------|-------------------|
|------------------|--------------------|-------------------|
|-(4)-4------4--4--|--4-------4--4------|-4--4------4-------|
|-(2)-2-2b3--2--2--|--2--2b3--2--2-2b3--|-2--2-2b3--2-2b3---|
|
|  W                 +W                   W
|------------------|--------------------|-------------------|
|------------------|--------------------|-6-----------------|
|--6---------------|-(6)----------------|-------------------|
|------------------|--------------------|-------------------|
|------------------|--------------------|-------------------|
|------------------|--------------------|-------------------|
|------------------|--------------------|-------------------|


  C#5    N.C. C#5          N.C. C#5  N.C.        C#5  N.C. C#5
   Q   E Q    Q  E   +E  E Q    Q  E E     +E    Q  E Q    E E
|------------------|---------------------|----------------------||-|
|------------------|---------------------|----------------------||-|
|------------------|---------------------|---------------------o||-|
|------------------|---------------------|----------------------||-|
|------------------|---------------------|---------------------o||-|
|--4---4------4--4-|-(4)-4------4--4-----|-------4--4------4-4--||-|
|--2---2-2b3--2--2-|-(2)-2-2b3--2--2-2b3-|-(2)b3-2--2-2b3--2-2--||-|
|
| +W                  W                    +W
|------------------|---------------------|----------------------||-|
|-(6)--------------|---------------------|----------------------||-|
|------------------|--6------------------|-(6)-----------------o||-|
|------------------|---------------------|----------------------||-|
|------------------|---------------------|---------------------o||-|
|------------------|---------------------|----------------------||-|
|------------------|---------------------|----------------------||-|


   Breakdown
    N.C.  B5  N.C.      B5    N.C.      B5         N.C.      B5
     Q    E E  Q.       E   E  Q.       E Q  E   E  Q.       E E  Q
||------------------------|--------------------|--------------------------|
||------------------------|--------------------|--------------------------|
||o-----------------------|--------------------|--------------------------|
||------------------------|--------------------|--------------------------|
||o-----------------------|--------------------|--------------------------|
||--------2-2-----------2-|-2-----------2-2--2-|-2-----------2-2----------|
||--------0-0-----------0-|-0-----------0-0--0-|-0-----------0-0----------|
|
|    E  E Q    E   E  E E   E  E   E  E H        E  E   E  E Q    E  E
||---8--8------8---8--8---|----8---8--8--------|----8---8--8------8--8----|
||--12-12-----12--12-12---|---12--12-12--------|---12--12-12-----12-12----|
||o-----------------------|--------------------|--------------------------|
||------------------------|--------------------|--------------------------|
||o-----------------------|--------------------|--------------------------|
||------------------------|--------------------|--------------------------|
||------------------------|--------------------|--------------------------|


     B5  N.C.      B5            N.C.      B5
   E E E  Q.       E E   +E  E E  Q.       E E
|----------------------|-----------------------|
|----------------------|-----------------------|
|----------------------|-----------------------|
|----------------------|-----------------------|
|----------------------|-----------------------|
|----2-2-----------2-2-|-(2)-2-2-----------2-2-|
|----0-0-----------0-0-|-(0)-0-0-----------0-0-|
|
|  E Q    E   E  E Q      Q.      E   E  E Q
|--8------8---8--8-----|----------8---8--8-----|
|-12-----12--12-12-----|---------12--12-12-----|
|----------------------|-----------------------|
|----------------------|-----------------------|
|----------------------|-----------------------|
|----------------------|-----------------------|
|----------------------|-----------------------|


  N.C.      B5  N.C.        B5          N.C.
   Q.       E E  Q.         E E +E  E E  Q.
|-------------------------|------------------------|
|-------------------------|------------------------|
|-------------------------|------------------------|
|-------------------------|------------------------|
|-------------------------|------------------------|
|-----------2-2-----------|-2-2-(2)-2-2------------|
|-----------0-0-----------|-0-0-(0)-0-0------------|
|
|  E   E  E Q    E   E  E   H         E  E   E  E
|--8---8--8------8---8--8-|--------------8---8--8--|
|-12--12-12-----12--12-12-|-------------12--12-12--|
|-------------------------|------------------------|
|-------------------------|------------------------|
|-------------------------|------------------------|
|-------------------------|------------------------|
|-------------------------|------------------------|


  1.                      2.
  B5  N.C.      B5         B5  N.C.      B5
  E E  Q.       E E  E     E E  Q.       E E E
|-----------------------||---------------------|
|-----------------------||---------------------|
|----------------------o||---------------------|
|-----------------------||---------------------|
|----------------------o||---------------------|
|-2-2-----------2-2-----||-2-2-----------2-2---|
|-0-0-----------0-0-----||-0-0-----------0-0---|
|
| Q    E   E  E Q    E     Q    E   E  E Q   E
|------8---8--8------8--||------8---8--8-------|
|-----12--12-12-----12--||-----12--12-12-------|
|----------------------o||---------------------|
|-----------------------||---------------------|
|----------------------o||---------------------|
|-----------------------||---------------------|
|-----------------------||---------------------|


   Bridge
    C5 B5  N.C.   B5    N.C.   B5
    Q  E E Q.     E   E Q.     E Q  E
||------------------|------------------|
||------------------|------------------|
||o-----------------|------------------|
||------------------|------------------|
||o-3--2------------|------------------|
||--3--2-2--------2-|-2--------2-2--2--|
||--1--0-0--------0-|-0--------0-0--0--|
|
|   H      E  E E E   E E  E E H
||------------------|------------------|
||---------0--0-0---|---0--0-0---------|
||o--------5--5-5---|---5--5-5---------|
||------------------|------------------|
||o-----------------|------------------|
||------------------|------------------|
||------------------|------------------|


    N.C.   B5  N.C.    B5  N.C.   B5
  E Q.     E E Q     E E E Q.     E E
|------------------|------------------|
|------------------|------------------|
|------------------|------------------|
|------------------|------------------|
|------------------|------------------|
|-2--------2-2-----|---2-2--------2-2-|
|-0--------0-0-----|---0-0--------0-0-|
|
| E E  E E Q   E E   E Q   E  E E Q
|------------------|------------------|
|---0--0-0-----0-0-|-0-----0--0-0-----|
|---5--5-5-----5-5-|-5-----5--5-5-----|
|------------------|------------------|
|------------------|------------------|
|------------------|------------------|
|------------------|------------------|


          N.C.   B5    N.C.   B5  N.C.
  +E  E E Q.     E E   Q.     E E Q.
|--------------------|--------------------|
|--------------------|--------------------|
|--------------------|--------------------|
|--------------------|--------------------|
|--------------------|--------------------|
|-(2)-2-2--------2-2-|--------2-2---------|
|-(0)-0-0--------0-0-|--------0-0---------|
|
|  Q.     E  E E Q     E  E E Q   E  E E
|--------------------|--------------------|
|---------0--0-0-----|-0--0-0-----0--0-0--|
|---------5--5-5-----|-5--5-5-----5--5-5--|
|--------------------|--------------------|
|--------------------|--------------------|
|--------------------|--------------------|
|--------------------|--------------------|


  B5       N.C.     B5  N.C.   B5
  E Q  E E Q.       E E Q.     E  E E
|-----------------|--------------------||
|-----------------|--------------------||
|-----------------|-------------------o||
|-----------------|--------------------||
|-----------------|-------------------o||
|-2-2--2-2--------|-2-2--------2--2----||
|-0-0--0-0--------|-0-0--------0--0----||
|
| E H      E  E E   Q   E  E E Q.
|-----------------|--------------------||
|----------0--0-0-|-----0--0-0---------||
|----------5--5-5-|-----5--5-5--------o||
|-----------------|--------------------||
|-----------------|-------------------o||
|-----------------|--------------------||
|-----------------|--------------------||


                          Verse
  B5  N.C.      B5         C#5           N.C.
  E E  Q.       E  E E     E E E E E E E E
|----------------------||---------------------|
|----------------------||---------------------|
|----------------------||o--------------------|
|----------------------||---------------------|
|----------------------||o--------------------|
|-2-2-----------2--2---||--4-4-4---4-4--------|
|-0-0-----------0--0---||--2-2-2---2-2---1b2--|
|
| Q    E   E  E Q.         E E E E E E E E
|------8---8--8--------||---------------------|
|-----12--12-12--------||---------------------|
|----------------------||o--------------------|
|----------------------||---------------------|
|----------------------||o--------------------|
|----------------------||--4-4-4---4-4--------|
|----------------------||--2-2-2---2-2---1b2--|


         C#5               N.C. C#5
  Gtr I
  +E     E E E E E E E   E Q    E E E E E
|----------------------|------------------|
|----------------------|------------------|
|----------------------|------------------|
|----------------------|------------------|
|----------------------|------------------|
|--------4-4-4---4-4-4-|--------4-4-4---4-|
|-(1)pb2-2-2-2---2-2-2-|---1b2--2-2-2---2-|


      N.C. C#5               N.C. C#5
  E E Q    E E E E   E E E E Q    E E
|------------------|-------------------|
|------------------|-------------------|
|------------------|-------------------|
|------------------|-------------------|
|------------------|-------------------|
|-4--------4-4-4---|-4-4-4--------4-4--|
|-2---1b2--2-2-2---|-2-2-2---1b2--2-2--|


            N.C. C#5               N.C.
  E E E E E Q    E   E E E E E E E E
|------------------|-------------------|
|------------------|-------------------|
|------------------|-------------------|
|------------------|-------------------|
|------------------|-------------------|
|-4---4-4--------4-|-4-4---4-4-4-------|
|-2---2-2---1b2--2-|-2-2---2-2-2---1b2-|
|
| Gtr I
| E E E E E Q    E   E E E E E E E E
|------------------|-------------------|
|------------------|-------------------|
|------------------|-------------------|
|------------------|-------------------|
|------------------|-------------------|
|-4---4-4--------4-|-4-4---4-4-4-------|
|-2---2-2---1b2--2-|-2-2---2-2-2---1b2-|


                           Bridge
      C#5     N.C.          C5 B5  N.C.   B5
  +E  E E E E Q.            Q  E E Q.     E
|--------------------||-||------------------|
|--------------------||-||------------------|
|-------------------o||-||o-----------------|
|--------------------||-||------------------|
|-------------------o||-||o-3--2------------|
|-----4-4-4----------||-||--3--2-2--------2-|
|-(1)-2-2-2---1b2----||-||--1--0-0--------0-|
|
|                           Gtr II
| +E  E E E E Q.            H      E  E E E
|--------------------||-||------------------|
|--------------------||-||---------0--0-0---|
|-------------------o||-||o--------5--5-5---|
|--------------------||-||------------------|
|-------------------o||-||o-----------------|
|-----4-4-4----------||-||------------------|
|-(1)-2-2-2---1b2----||-||------------------|


    N.C.   B5         N.C.   B5  N.C.    B5  N.C.   B5            N.C.   B5
  E Q.     E Q  E   E Q.     E E Q     E E E Q.     E E   +E  E E Q.     E E
|-----------------|------------------|------------------|---------------------|
|-----------------|------------------|------------------|---------------------|
|-----------------|------------------|------------------|---------------------|
|-----------------|------------------|------------------|---------------------|
|-----------------|------------------|------------------|---------------------|
|-2--------2-2--2-|-2--------2-2-----|---2-2--------2-2-|-(2)-2-2--------2-2--|
|-0--------0-0--0-|-0--------0-0-----|---0-0--------0-0-|-(0)-0-0--------0-0--|
|
| E E  E E H        E E  E E Q   E E   E Q   E  E E Q      Q.     E  E E Q
|-----------------|------------------|------------------|---------------------|
|---0--0-0--------|---0--0-0-----0-0-|-0-----0--0-0-----|---------0--0-0------|
|---5--5-5--------|---5--5-5-----5-5-|-5-----5--5-5-----|---------5--5-5------|
|-----------------|------------------|------------------|---------------------|
|-----------------|------------------|------------------|---------------------|
|-----------------|------------------|------------------|---------------------|
|-----------------|------------------|------------------|---------------------|


  N.C.   B5  N.C.     B5       N.C.     B5  N.C.   B5
  Q.     E E Q.       E Q  E E Q.       E E Q.     E  E E
|-------------------|-----------------|--------------------||
|-------------------|-----------------|--------------------||
|-------------------|-----------------|-------------------o||
|-------------------|-----------------|--------------------||
|-------------------|-----------------|-------------------o||
|--------2-2--------|-2-2--2-2--------|-2-2--------2--2----||
|--------0-0--------|-0-0--0-0--------|-0-0--------0--0----||
|
| E  E E Q   E  E E   E H      E  E E   Q   E  E E Q.
|-------------------|-----------------|--------------------||
|-0--0-0-----0--0-0-|----------0--0-0-|-----0--0-0---------||
|-5--5-5-----5--5-5-|----------5--5-5-|-----5--5-5--------o||
|-------------------|-----------------|--------------------||
|-------------------|-----------------|-------------------o||
|-------------------|-----------------|--------------------||
|-------------------|-----------------|--------------------||


   Outro
    N.C. C#5  N.C. C#5       N.C. C#N.C. C#5
    Q    Q  E Q    E   +E  E Q    E Q    E
||-------------------|---------------------|
||-------------------|---------------------|
||o------------------|---------------------|
||-------------------|---------------------|
||o------------------|---------------------|
||-------4--4------4-|-(4)-4------4------4-|
||--2b3--2--2-2b3--2-|-(2)-2-2b3--2-2b3--2-|


        N.C. C#5       N.C. C#5  N.C.   C#5  N.C. C#N.C.
  +E  E Q    Q  Q    E Q    Q  E Q      Q  E Q    E Q
|------------------|------------------|-------------------|
|------------------|------------------|-------------------|
|------------------|------------------|-------------------|
|------------------|------------------|-------------------|
|------------------|------------------|-------------------|
|-(4)-4------4--4--|-4------4--4------|-4--4------4-------|
|-(2)-2-2b3--2--2--|-2-2b3--2--2-2b3--|-2--2-2b3--2-2b3---|


  C#5  N.C. C#5          N.C. C#5  N.C.        C#5  N.C. C#5
  Q  E Q    Q  E   +E  E Q    Q  E E     +E    Q  E Q    E E  5x
|----------------|---------------------|----------------------||
|----------------|---------------------|----------------------||
|----------------|---------------------|---------------------o||
|----------------|---------------------|----------------------||
|----------------|---------------------|---------------------o||
|-4--4------4--4-|-(4)-4------4--4-----|-------4--4------4-4--||
|-2--2-2b3--2--2-|-(2)-2-2b3--2--2-2b3-|-(2)b3-2--2-2b3--2-2--||



Duration Legend
---------------
W - whole; H - half; Q - quarter; E - 8th; S - 16th; T - 32nd; X - 64th; a - acciaccatura
+ - note tied to previous; . - note dotted; .. - note double dotted
Uncapitalized letters represent notes that are staccato (1/2 duration)
Irregular groupings are notated above the duration line
Duration letters will always appear directly above the note/fret number it represents the
duration for.  Duration letters with no fret number below them represent rests.  Multi-
bar rests are notated in the form Wxn, where n is the number of bars to rest for.  Low
melody durations appear below the staff

Tablature Legend
----------------
 h   - hammer-on
 p   - pull-off
 b   - bend
 pb  - pre-bend
 r   - bend release (if no number after the r, then release immediately)
 /\  - slide into or out of (from/to "nowhere")
 s   - legato slide
 S   - shift slide
 - natural harmonic
[n]  - artificial harmonic
n(n) - tapped harmonic
 ~   - vibrato
 tr  - trill
 T   - tap
 TP  - trem. picking
 PM  - palm muting
\n/  - tremolo bar dip; n = amount to dip
 \n  - tremolo bar down
 n/  - tremolo bar up
/n\  - tremolo bar inverted dip
 =   - hold bend; also acts as connecting device for hammers/pulls
 <> - volume swell (louder/softer)
 x   - on rhythm slash represents muted slash
 o   - on rhythm slash represents single note slash

Misc Legend
-----------
 |  - bar
||  - double bar
||o - repeat start
o|| - repeat end
*|  - double bar (ending)
 :  - bar (freetime)
 $  - Segno
 &  - Coda
Tempo markers -  = BPM(8/16=s8/s16), where s8 = swing 8ths, s16 = swing 16ths





Comments


Popular Meshuggah tabs & chords
Beneath Bass Tabs
Elastic Bass Tabs
Future Bread Machine Bass Tabs
Neurotica Bass Tabs
Stengah Drum Tabs
Bleed Intro Tabs
Entrapment Tabs
Erroneous Manipulations Tabs
Future Breed Machine Tabs
Humiliative Tabs


Song lyrics



↑ Back to top | Tablatures and chords are parodies/interpretations of the original songs. You may use it for private study, scholarship, research or language learning purposes only
© 2014 AZChords.com Contact us | Privacy policy | DMCA | Add/correct tabs | Request tabs | Top 50 tabs