» » »

Rational Gaze Tabs (ver.1)

Artists:  A B C D E F G H I J K L M N O P Q R S T U V W X Y Z # 

Rational Gaze Tabs (ver.1)

Meshuggah
Rating:
0/5 (0 votes)

Hard to play? Try these video lessons and learn fast.
                Tuning 
Bb: Bb Eb Ab Db Gb Bb 


"The correct tuning!!!"
F Bb Eb Ab Db Gb Bb Eb 

For a 8 string tune the 6th string to the 3rd bass string 1 1/2 strps down i think, like this

F Bb Eb Ab Db Gb if you want to sound good(ust the thickest strings u can find, or use 9's and let them set awile)

Meshuggah uses DR strings : 9-70 
thought u auto know

Note this tab is on a 6 string meshuggah plays 8 string!!!  Just have to use what you have
if a 7 thats good just what you got.


i use Bb(listed above)


guide:
*=note(see beside riff)
x=dead note
....=palm muted
b=bend
s:slight bend
^^=vibrate

here we go !!this is going to be tabbed on Bb you use the tuning you want.

intro:

Bb-------------------------------------------    (6times)
Gb-------------------------------------------
Db-------------------------------------------
Ab---5-6-6-4-3-2---5-5-5-4s-3b---------------
Eb---5-6-6-4-3-2---5-5-5-4s-3b---------------
Bb---5-6-6-4-3-2---5-5-5-4s-3b---------------


verse:


chorus:same as verse



Bb-------------------------------------------(10times)
Gb-------------------------------------------
Db-------------------------------------------
Ab--4h5p4h5-6-5s-4b---5-4-4-3-2--------------
Eb--4h5p4h5-6-5s-4b---5-4-4-3-2--------------
Bb--4h5p4h5-6-5s-4b---5-4-4-3-2--------------

break gtr. 1

Bb---1-1-12-1-21-2113-434-434-323-465-7-565-435^^^-4^^-4-5-4-5b5b-9b-----------------
Gb-----------------------------------------------------------------------------------
Db-----------------------------------------------------------------------------------
Ab-----------------------------------------------------------------------------------
Eb-----------------------------------------------------------------------------------
Bb-----------------------------------------------------------------------------------


intro
verse
chorus
verse
break
intro riff


this is my tab i hope you liked it also rate it!!
            
Hard to play? Try these video lessons and learn fast. | Correct




comments powered by Disqus
↑ Back to top | Tablatures and chords are parodies/interpretations of the original songs. You may use it for private study, scholarship, research or language learning purposes only