» » »

Meshuggah, Combustion Tabs (ver.2)

Artists:  A B C D E F G H I J K L M N O P Q R S T U V W X Y Z # 

Combustion Tabs (ver.2)

Meshuggah Tabs
Rating:
5/5 (4 votes)
Combustion lessons Tabs too difficult? Try these video lessons and learn fast
                Okay, this s NOT my tab, but if you look in the other versions, there is no 
version avaliable for those w/o power tab or GP.


8-string guitars, only low 4 shown
4/4 time @220 BPM

main riff quiet:

Eb|----------------|----------------|----------------|----------------|
Bb|----------------|----------------|----------------|----------------|
Gb|----------------|----------------|----------------|----------------|
Db|----------------|----------------|----------------|----------------|
Ab|----------------|----------------|----------------|----------------|
Eb|---12p0 ---15p0 |-------14p012p0 |--------8p0 5p0 |--------3p0 ----|
Bb|----------------|----------------|----------------|----------------|
F |0   ---10p0 ----13p012p0 --------10p0 6p0 --------|3p0 0   ----1   |
pm .______________________________________________________________.

main riff: *always muted except the first time of each main riff section
Eb|----------------|----------------|----------------|----------------|
Bb|----------------|----------------|----------------|----------------|
Gb|----------------|----------------|----------------|----------------|
Db|----------------|----------------|----------------|----------------|
Ab|----------------|----------------|----------------|----------------|
Eb|---12p0 ---15p0 |-------14p012p0-|--------8p0 5p0 |--------3p0 ----|
Bb|----------------|----------------|----------------|----------------|
F |0   ---10 0 ----13 012 0 --------10 0 6 0 --------|3 0 0   ----1   |
pm *       ._.      ._____.          ._____.          .___.       .___

groove:
Eb|----------------|----------------|----------------|----------------|
Bb|----------------|----------------|----------------|----------------|
Gb|----------------|----------------|----------------|----------------|
Ab|----------------|----------------|----------------|----------------|
Eb|----------------|-------12p0 ----|----------------|-------15p0 ----|
Bb|----------------|----------------|----------------|----------------|
F |0  10 012   0   10 012   ---10   |0  10 012   0   10 012   ---10   |
pm ._____.     .______.              ._____.     .______.

deluge riff:
Eb|----------------|----------------|----------------|----------------|
Bb|----------------|----------------|----------------|----------------|
Gb|----------------|----------------|----------------|----------------|
Db|----------------|----------------|----------------|----------------|
Ab|----------------|----------------|----------------|----------------|
Eb|----------------|8 --------------|--7 ----8 ------|----------8 ----|
Bb|---10-----7 ----|-----10 ----7 --|-------------10 |----7 ----------|
F |0   --7p0 --4p0 |--5p0 --7p0 --4 p0 --4p0 --5p0 --|7p0 --4p0 --5p0 |

Eb|----------------|----------------|----------------|----------------|
Bb|----------------|----------------|----------------|----------------|
Gb|----------------|----------------|----------------|----------------|
Db|----------------|----------------|----------------|----------------|
Ab|----------------|----------------|----------------|----------------|
Eb|--------------7 |----8 ----------|------------7 --|--8 ------------|
Bb10   ----7 ------|---------10 ----|7 ----5 --------|-------10 ----7 |
F |----7p0 --4p0 --|4p0 --5p0 --7p0 |--4p0 --2p0 --4 p0 --5p0 --7p0 --|

verse A:
Eb|----------------|----------------|----------------|----------------|
Bb|----------------|----------------|----------------|----------------|
Gb|----------------|----------------|----------------|----------------|
Db|----------------|----------------|----------------|----------------|
Ab|----------------|----------------|----------------|----------------|
Eb|----------------|----------------|----------------|------------8p0 |
Bb|----------------|----------------|----------------|---10p0 --------|
F |0   0 0 0 0 0 0 |0 0 0 0 0 0 0 0 |0 0 0 0 0 0 0 0 |0 0 ----6p0 ----|
pm     .________________________________________________.


Eb|----------------|----------------|----------------|----------------|
Bb|----------------|----------------|----------------|----------------|
Gb|----------------|----------------|----------------|----------------|
Db|----------------|----------------|----------------|----------------|
Ab|----------------|----------------|----------------|----------------|
Eb|----------------|----------------|------------3p0 |--------5p0 6   |
Bb|----------------|----------------|----------------|----------------|
F |3   0 0 0 0 0 0 |0 0 0 0 0 0 0 0 |0 0 0 0 0 0 ----|1p0 3p0 --------|
pm     ._______________________________________.

Eb|----------------|----------------|----------------|----------------|
Bb|----------------|----------------|----------------|----------------|
Gb|----------------|----------------|----------------|----------------|
Db|----------------|----------------|----------------|----------------|
Ab|----------------|----------------|----------------|----------------|
Eb|----------------|----------------|----------------|----------------|
Bb|----------------|----------------|----------------|-------10p0 ----|
F |0   0 0 0 0 0 0 |0 0 0 0 0 0 0 0 |0 0 0 0 0 0 0 0 |0 0 0 0 ----6p0 |
pm     .____________________________________________________.

Eb|----------------|----------------|----------------|----------------|
Bb|----------------|----------------|----------------|----------------|
Gb|----------------|----------------|----------------|----------------|
Db|----------------|----------------|----------------|----------------|
Ab|----------------|----------------|---10p0 9p0 ----|------------6p0 |
Eb|8   ------------|----------------|----------------|8p0 ------------|
Bb|----------------|----------------|----------------|---10p0 --------|
F |----0 0 0 0 0 0 |0 0 0 0 0 0 0 0 |0 0---------9p0 |--------6p0 ----|
pm     ._______________________________.

verse B:
Eb|----------------|----------------|----------------|----------------|
Bb|----------------|----------------|----------------|----------------|
Gb|----------------|----------------|----------------|----------------|
Db|----------------|----------------|----------------|----------------|
Ab|----------------|----------------|------------7p0 |----------------|
Eb|----------------|----------------|----------------|--8p0 --8p0 --6 |
Bb|----------------|----------------|----------------|7 --------------|
F |3   3 3 3 3 3 3 |3 3 3 3 3 3 3 3 |3 3 3 3 3 3 ----|------9 ----7 --|
pm     ._______________________________________.

Eb|----------------|----------------|----------------|----------------|
Bb|----------------|----------------|----------------|----------------|
Gb|----------------|----------------|----------------|----------------|
Db|----------------|----------------|----------------|----------------|
Ab|----------------|----------------|------------7p0 |------4 --------|
Eb|----------------|----------------|----------------|--6p0 --------3 |
Bb|----------------|----------------|----------------|7 ------4p0 ----|
F |0   0 0 0 0 0 0 |0 0 0 0 0 0 0 0 |0 0 0 0 0 0 ----|------------4 --|
pm     ._______________________________________.

Eb|----------------|----------------|----------------|----------------|
Bb|----------------|----------------|----------------|----------------|
Gb|----------------|----------------|----------------|----------------|
Db|----------------|----------------|----------------|----------------|
Ab|----------------|----------------|------------7p0 |----------------|
Eb|----------------|----------------|----------------|--8p0 --8p0 --6 |
Bb|----------------|----------------|----------------|7 --------------|
F |3   3 3 3 3 3 3 |3 3 3 3 3 3 3 3 |4   4 4 4 4 ----|------9 ----7 --|
pm     .__________________________.      ._____.
                                                 /slide to 8

Eb|----------------|----------------|----------------|----------------|
Bb|----------------|----------------|----------------|----------------|
Gb|----------------|----------------|----------------|----------------|
Db|----------------|----------------|----------------|----------------|
Ab|----------------|----------------|------------7p0 |----------------|
Eb|----------------|----------------|----------------|-10p0 ----------|
Bb|----------------|----------------|----------------|9 ----3 2p0 ----|
F |0   0 0 0 0 0 0 |0 0 0 0 0 0 0 0 |0 0 0 0 0 0 ----|------------4   |
pm     ._______________________________________.

bridge:        note these fills are the same as those in verse B
Eb|----------------|----------------|----------------|----------------|
Bb|----------------|----------------|----------------|----------------|
Gb|----------------|----------------|----------------|----------------|
Db|----------------|----------------|----------------|----------------|
Ab|------------7p0 |----------------|------------7p0 |------4 --------|
Eb|----------------|--8p0 --8p0 --6 |----------------|--6p0 --------3 |
Bb|----------------|7 --------------|----------------|7 ------4p0 ----|
F |0      0    ----|------9 ----7 --|0      0    ----|------------4 --|
                                                 /slide to 8
Eb|----------------|----------------|----------------|----------------|
Bb|----------------|----------------|----------------|----------------|
Gb|----------------|----------------|----------------|----------------|
Db|----------------|----------------|----------------|----------------|
Ab|------------7p0 |----------------|------------7p0 |----------------|
Eb|----------------|--8p0 --8p0 --6 |----------------|-10p0 ----------|
Bb|----------------|7 --------------|----------------|9 ----3 2p0 ----|
F |0      0    ----|------9 ----7 --|0      0    ----|------------4   |

solo A:
Eb|----------------|----------------|----------------|----------------|
Bb|----------------|----------------|----------------|----------------|
Gb|----------------|----------------|----------------|----------------|
Db|----------------|----------------|----------------|----------------|
Ab|----------------|----------------|----------------|----------------|
Eb|----8p0 --------|6p0 ------------|----8p0 --------|6p0 3p0 --------|
Bb|----------------|----------------|----------------|----------------|
F |0   ----6p0 4p0 |----1p0 0 0 0 0 |0 0 ----6p0 4p0 |--------1p0 0 0 |
pm                          .__________.                          ._.

Eb|----------------|----------------|----------------|----------------|
Bb|----------------|----------------|----------------|----------------|
Gb|----------------|----------------|----------------|----------------|
Db|----------------|----------------|----------------|----------------|
Ab|----------------|----------------|----------------|----------------|
Eb|----8p0 --------|6p0 ------------|----3p0 --------|5p0 6p0 --------|
Bb|----------------|----------------|----------------|----------------|
F |0   ----6p0 4p0 |----1p0 0 0 0 0 |0 0 ----1p0 3p0 |--------0 0 0 0 |
pm                          .__________.                      ._____.

solo B:
Eb|----------------|----------------|----------------|----------------|
Bb|----------------|----------------|----------------|----------------|
Gb|----------------|----------------|----------------|----------------|
Db|----------------|----------------|----------------|----------------|
Ab|----------------|----------------|------------7p0 |----------------|
Eb|----------------|----------------|----------------|--8p0 --8p0 --6 |
Bb|----------------|----------------|----------------|7 --------------|
F |3   3 3 3 3 3 3 |3 3 3 3 3 3 3 3 |3 3 3 3 3 3 ----|------9 ----7 --|
pm       ._____________________________________.

solo C:
Eb|----------------|----------------|----------------|----------------|
Bb|----------------|----------------|----------------|----------------|
Gb|----------------|----------------|----------------|----------------|
Db|----------------|----------------|----------------|----------------|
Ab|----------------|----------------|----------------|--------
Eb|---15p0 --------|---12p011p0 ----|--------8p0 6p0 |--------
Bb|----------------|----------------|----------------|--------
F |0   ---13p012p0 10p0 --------9p0 |7p0 6p0 --------|4p0 3p0

solo C endings:
Ab|        --------|        --------|        --------|        --------|
Eb|        5p0 ----|        5p0 6   |        5p0 ----|        5p0 3p0 |
Bb|        --------|        --------|        --------|        --------|
F |        ----1   |        --------|        ----1   |        --------|

end:
Eb|----------------|
Bb|----------------|
Gb|----------------|
Db|----------------|
Ab|----------------|
Eb|----------------|
Bb|----------------|
F |0   ------------|

structure:
main riff quiet *2
main riff *4
groove *4
main riff quiet
deluge riff *2
verse A
verse B
main riff quiet *2
verse A
verse B
bridge *2
solo A *2 (lead not transcribed)
solo B
solo C *4 (each with the corresponding ending)
main riff quiet *2
main riff *4
groove *4
end
            
Submit corrections

comments powered by Disqus
↑ Back to top | Meshuggah Tabs for Combustion. Lyrics for acoustic guitar and electric guitar. Tablatures and chords are parodies/interpretations of the original songs. You may use it for private study, scholarship, research or language learning purposes only