» » »

Meshuggah, Corridor Of Chameleons Bass tabs (ver.1)

Artists:  A B C D E F G H I J K L M N O P Q R S T U V W X Y Z # 

Corridor Of Chameleons Bass tabs (ver.1)

Meshuggah Tabs
 Rating:
3.4/5 (5 votes)
Corridor Of Chameleons lessons Tabs too difficult? Try these video lessons and learn fast
1
                Tune down 5 string

F#||--------------------------------|----------------------------|
C#||*-------------------------------|----------------------------|
G#||--------------------------------|----------------------------|
D#||*--0-0-0-0-0-0-0----0-0-0-0-0-0-|--0----0-0-0-0-0-0-0----0-0-|
A#||--------------------------------|----------------------------|


                                                             3x
------------------------------|------------------------------||
------------------------------|-----------------------------*||
------------------------------|------------------------------||
--0-0-0-0-0----0-0-0-0-0-0-0--|----0-0-0-0-0-0-0----0-0-0-0-*||
------------------------------|------------------------------||


                                                              
--------------------------------|----------------------------|
*-------------------------------|----------------------------|
--------------------------------|----------------------------|
*--0-0-0-0-0-0-0----0-0-0-0-0-0-|--0----0-0-0-0-0-0-0----0-0-|
--------------------------------|----------------------------|


                                                             3x
------------------------------|------------------------------||
------------------------------|-----------------------------*||
------------------------------|------------------------------||
--0-0-0-0-0----0-0-0-0-0-0-0--|----0-0-0-0-0-0-0----0-0-0-0-*||
------------------------------|------------------------------||


                                                              3x
--------------------------------|-----------------------------||
*-------------------------------|----------------------------*||
--------------------------------|-----------------------------||
*--2-2-2-2-2-2-2----2-2-2-2-2-2-|--2----2-2-2-2-2-2-2----2-2-*||
--------------------------------|-----------------------------||


                                                              
--------------------------------|----------------------------|
*-------------------------------|----------------------------|
--------------------------------|----------------------------|
*--0-0-0-0-0-0-0----0-0-0-0-0-0-|--0----0-0-0-0-0-0-0----0-0-|
--------------------------------|----------------------------|


                                                             3x
------------------------------|------------------------------||
------------------------------|-----------------------------*||
------------------------------|------------------------------||
--0-0-0-0-0----0-0-0-0-0-0-0--|----0-0-0-0-0-0-0----0-0-0-0-*||
------------------------------|------------------------------||


                                                                        
------------------------|-----------------------|----------------------|
*-----------------------|-----------------------|----------------------|
------------------------|-----------------------|----------------------|
*-----------------------|-----------------------|----------------------|
---3b---3----3--3b---3--|----3--3b---3----3--3b-|----3----3--3b---3----|


                        3x                                                
------------------------||-----------------------|-----------------------|
-----------------------*||-----------------------|-----------------------|
------------------------||-----------------------|-----------------------|
-----------------------*||-----------------------|-----------------------|
--3--3b---3----3--3b----||--2b---2----2--2b---2--|----2--2b---2--2b---2--|


                                                                       
----------------------|-----------------------|-----------------------|
----------------------|-----------------------|-----------------------|
----------------------|-----------------------|-----------------------|
----------------------|-----------------------|-----------------------|
----2--2b---2----2----|--2--2b---2----2--2b---|--2----2--2b---2--2b---|


                                                                        
-----------------------|-----------------------|-----------------------|
-----------------------|-----------------------|-----------------------|
-----------------------|-----------------------|-----------------------|
-----------------------|-----------------------|-----------------------|
--2----2--2b---2----2--|----2--2b---2----2--2b-|----2----2--2b---2--2--|


                                                                       
-----------------------|-----------------------|----------------------|
-----------------------|-----------------------|----------------------|
-----------------------|-----------------------|----------------------|
-----------------------|-----------------------|----------------------|
--2b---2----2--2b---2--|----2--2b---2--2b---2--|----2--2b---2----2----|


                                                                        
-----------------------|-----------------------|-----------------------|
-----------------------|-----------------------|-----------------------|
-----------------------|-----------------------|-----------------------|
-----------------------|-----------------------|-----------------------|
--2--2b---2----2--2b---|--2----2--2b---2--2b---|--2----2--2b---2----2--|


                                                                          
-----------------------|-----------------------||------------------------|
-----------------------|-----------------------||*-----------------------|
-----------------------|-----------------------||------------------------|
-----------------------|-----------------------||*-----------------------|
----2--2b---2----2--2b-|----2----2--2b---2--2--||---2b---2----2--2b---2--|


                                                                       
-----------------------|----------------------|-----------------------|
-----------------------|----------------------|-----------------------|
-----------------------|----------------------|-----------------------|
-----------------------|----------------------|-----------------------|
----2--2b---2--2b---2--|----2--2b---2----2----|--2--2b---2----2--2b---|


                                                                        
-----------------------|-----------------------|-----------------------|
-----------------------|-----------------------|-----------------------|
-----------------------|-----------------------|-----------------------|
-----------------------|-----------------------|-----------------------|
--2----2--2b---2--2b---|--2----2--2b---2----2--|----2--2b---2----2--2b-|


                                                                        
------------------------||----------------------|----------------------|
-----------------------*||*---------------------|----------------------|
------------------------||----------------------|----------------------|
-----------------------*||*---------------------|----------------------|
----2----2--2b---2--2---||-------0--0--------0--|--0--------0--0----0--|


                                                                    
---------------------|----------------------|----------------------|
---------------------|----------------------|----------------------|
---------------------|----------------------|----------------------|
---------------------|----------------------|----------------------|
--0--------0--0------|----0--0--------0--0--|----0--0--------0--0--|


                                                                     
--------------------|----------------------|-----------------------||
--------------------|----------------------|----------------------*||
--------------------|----------------------|-----------------------||
--------------------|----------------------|----------------------*||
--------0--0--------|--0--0----0--0--------|--0--0--------0--0-----||


                                                                       
----------------------||-----------------------|----------------------|
----------------------||*----------------------|----------------------|
----------------------||-----------------------|----------------------|
----------------------||*----------------------|----------------------|
--0--0--------0--0----||---1----0--0--------0--|--0--------0--0----0--|


                                                                    
---------------------|----------------------|----------------------|
---------------------|----------------------|----------------------|
---------------------|----------------------|----------------------|
---------------------|----------------------|----------------------|
--0--------0--0------|----0--0--------0--0--|----0--0--------0--0--|


                                                                     
--------------------|----------------------|-----------------------||
--------------------|----------------------|----------------------*||
--------------------|----------------------|-----------------------||
--------------------|----------------------|----------------------*||
--------0--0--------|--0--0----0--0--------|--0--0--------0--0-----||


                                                                           
----------------------||-------------------------|------------------------|
----------------------||*------------------------|------------------------|
----------------------||-------------------------|------------------------|
----------------------||*------------------------|------------------------|
--0--0--------0--0----||---2--2--2----2--2----1b-|----2--2--2----2--2--2--|


                                                                         
-----------------------|-----------------------|------------------------|
-----------------------|-----------------------|------------------------|
-----------------------|-----------------------|------------------------|
-----------------------|-----------------------|------------------------|
----1b---2--2--2----2--|--2----1b---2--2--2----|--2--2--2----1b---2--2--|


                                                                          
-----------------------|------------------------|-----------------------||
-----------------------|------------------------|----------------------*||
-----------------------|------------------------|-----------------------||
-----------------------|------------------------|----------------------*||
--2----2--2----1b---2--|--2--2----2--2--2----1b-|----2--2--2----1b------||


                                                                     
-----------------------|----------------------|---------------------|
*----------------------|----------------------|---------------------|
-----------------------|----------------------|---------------------|
*----------------------|----------------------|---------------------|
---1----0--0--------0--|--0--------0--0----0--|--0--------0--0------|


                                                                   
----------------------|----------------------|--------------------|
----------------------|----------------------|--------------------|
----------------------|----------------------|--------------------|
----------------------|----------------------|--------------------|
----0--0--------0--0--|----0--0--------0--0--|--------0--0--------|


                                                                         
----------------------|-----------------------||------------------------|
----------------------|----------------------*||*-----------------------|
----------------------|-----------------------||------------------------|
----------------------|----------------------*||*-----------------------|
--0--0----0--0--------|--0--0--------0--0-----||---2b---2----2--2b---2--|


                                                                       
-----------------------|----------------------|-----------------------|
-----------------------|----------------------|-----------------------|
-----------------------|----------------------|-----------------------|
-----------------------|----------------------|-----------------------|
----2--2b---2--2b---2--|----2--2b---2----2----|--2--2b---2----2--2b---|


                                                                        
-----------------------|-----------------------|-----------------------|
-----------------------|-----------------------|-----------------------|
-----------------------|-----------------------|-----------------------|
-----------------------|-----------------------|-----------------------|
--2----2--2b---2--2b---|--2----2--2b---2----2--|----2--2b---2----2--2b-|


                        5x
------------------------||
-----------------------*||
------------------------||
-----------------------*||
----2----2--2b---2--2---||
            
Submit corrections

comments powered by Disqus
↑ Back to top | Meshuggah Bass for Corridor Of Chameleons. Lyrics for acoustic guitar and electric guitar. 1 Tablatures and chords are parodies/interpretations of the original songs. You may use it for private study, scholarship, research or language learning purposes only