» » »

Leaving On A Jetplane Bass tabs (ver.2)

Artists:  A B C D E F G H I J K L M N O P Q R S T U V W X Y Z # 

Leaving On A Jetplane Bass tabs (ver.2)

Me First And The Gimme Gimmes
Rating:
0/5 (0 votes)

Hard to play? Try these video lessons and learn fast.
                INTRO 
G-----------------------------------------------------------------------|
D-5-5-5-5-5-5-5-5-5--4h5-5-4h5-5-5-4h5-5-5-5-5-5-5-5-5-4h5-5-4h5-5-5-4h-|
A-----------------------------------------------------------------------|
E-----------------------------------------------------------------------|

VERSE #=play 8x %=pause
G--------------------------------------------------------------------%-|
D-5#------5#------5#--------------5#------5#------22-3-44-5#---------%-|
A-----3#------3#------3#--5#--5#------3#------333-------------3#--5#-%-|
E--------------------------------------------------------------------%-|

Chorus #=play 8x
G--------------------------------------------------------------------|
D-5#------5#------5#--------------5#------5#------5#-----------------|
A-----3#------3#------3#--5#--5#------3#------3#-----3#--5#--5#------|
E----------------------------------------------------------------3\/-|

Verse 2
G-------------------------------------------------------------------------|
D-----------2-3-5-----------2-3-5-----------2-3-5----44-55-77----44-55-77-|
A---2-3-5-3---------2-3-5-3---------2-3-5-3-------55----------55----------|
E-3---------------3---------------3---------------------------------------|

Verse 2 (continued) #=play 8X
G----------------------------------------------------------------|
D-5#------5#------5#--------------5#------5#------5#-------------|
A-----3#------3#------3#--5#--5#------3#------3#------3#--5#--5#-|
E----------------------------------------------------------------|

Chorus #=play 8X
G--------------------------------------------------------------------+
D-5#------5#------5#------------------5#------5#------5#-------------+
A-----3#------3#------3#--5#--5#--5#------3#------3#------3#--5#--5#-+
E--------------------------------------------------------------------+

VERSE 3 #=play 8X %=pause
G---------------------------------------------------------------+
D-5#------5#------5#--------------5#------5#------5#------------+
A-----3#------3#------3#--5#--5#------3#------3#-----3#--5#--5#-+
E---------------------------------------------------------------+

Chorus #=play 8X (x)=single note     x2
G------------------------------------|----------------------------------|
D-5#------5#------5#-----------------|------------------------(12)-(12)-|
A-----3#------3#------3#--5#--5#--5#-|---------------------!--(10)-(10)-|
E------------------------------------|-3--------------------------------|
            
Hard to play? Try these video lessons and learn fast. | Correct




comments powered by Disqus
↑ Back to top | Tablatures and chords are parodies/interpretations of the original songs. You may use it for private study, scholarship, research or language learning purposes only