» » »

Me First And The Gimme Gimmes, I Believe I Can Fly Tabs (ver.1)

Artists:  A B C D E F G H I J K L M N O P Q R S T U V W X Y Z # 

I Believe I Can Fly Tabs (ver.1)

Me First And The Gimme Gimmes Tabs
 Rating:
4/5 (11 votes)
I Believe I Can Fly lessons Tabs too difficult? Try these video lessons and learn fast
1
                Here we go... I hope you like it. tab #2. I got this from some other tab site,

~ = let ring

Intro(I used to think that I could not go on...)
E--8-8-8-8-8-8--------7-7-7-7-7-7-------
B--8-8-8-8-8-8--------8-8-8-8-8-8-------
G--9-9-9-9-9-9--------9-9-9-9-9-9-------
D---------------------------------------
A---------------------------------------
E---------------------------------------

Chorus part 1 (I believe I can fly...)
E----------------------------------------------------------------------------
B----------------------------------------------------------------------------
G--5555555555555555-----------------------7777777777777777-------------------
D--5555555555555555-777777777777777777777-7777777777777777-555555555555555555
A--3333333333333333-777777777777777777777-5555555555555555-555555555555555555
E-------------------555555555555555555555------------------333333333333333333

Chorus pt. 1 cont.(I Belive I can soar...)
E---------------------------------------------------------------------
B---------------------------------------------------------------------
G---------------------------------------------------------------------
D--7777777777777777-6666666666666666-5555555555555555-6666666666666666
A--7777777777777777-6666666666666666-5555555555555555-6666666666666666
E--5555555555555555-4444444444444444-3333333333333333-4444444444444444

Pre-verse (no, not perverts, sicko) (WHOO!)
E------------------
B------------------
G------------------
D--7~--7~--7~--7--6
A--7~--7~--7~--7--6
E--5~--5~--5~--5--4

Verse (See, I was on the verge of breaking down...)
E--3~-----5~--
B--5~-----7~--
G--5~-----7~--
D--5~-----7~--
A--3~-----5~--       x4
E--3~-----5~--

Pre-chorus 1
E------------------------------------------------------
B------------------------------------------------------
G---------------------------------5~--5-5-5-5-5--------
D-7~--7-7-7-7-7---6~--6-6-6-6-6---5~--5-5-5-5-5---3~--5
A-7~--7-7-7-7-7---6~--6-6-6-6-6---3~--3-3-3-3-3---3~--5
E-5~--5-5-5-5-5---4~--4-4-4-4-4-------------------1~--3

[Chorus part 1]

Bridge (Cause I believe in you.)
E---------------------------------------------------------------------
B---------------------------------------------------------------------
G------------------7777777777777777-5555555555555555------------------
D-7777777777777777-7777777777777777-5555555555555555-5555555555555555-
A-7777777777777777-5555555555555555-3333333333333333-5555555555555555-
E-5555555555555555-----------------------------------3333333333333333-

Pre Chorus 2(If I can see it...)
E----------------------------------------------
B----------------------------------------------
G---------------------------6~--6-6-6-6--------
D-8~--8-8-8-8--7~--7-7-7-7--6~--6-6-6-6--4~--4-
A-8~--8-8-8-8--7~--7-7-7-7--4~--4-4-4-4--4~--4-
E-6~--6-6-6-6--5~--5-5-5-5---------------2~--2-

CHORUS PART 2
E---------------------------------------------------------------------
B---------------------------------------------------------------------
G-6666666666666666------------------8888888888888888------------------
D-6666666666666666-8888888888888888-8888888888888888-6666666666666666-
A-4444444444444444-8888888888888888-6666666666666666-6666666666666666-
E------------------6666666666666666------------------4444444444444444-

E---------------------------------------------------------------------
B---------------------------------------------------------------------
G---------------------------------------------------------------------
D-8888888888888888-7777777777777777-6666666666666666-7777777777777777-
A-8888888888888888-7777777777777777-6666666666666666-7777777777777777-
E-6666666666666666-5555555555555555-4444444444444444-5555555555555555-

Outro
E--------------------------------------------------------------
B--------------------------------------------------------------
G-----------------------------------8888888888888888-6~----6/--
D-8888888888888888-6666666666666666-8888888888888888-6~----6/--
A-8888888888888888-6666666666666666-6666666666666666-4~----4/--
E-6666666666666666-4444444444444444----------------------------

There you go. Enjoy. :P
            
Submit corrections

comments powered by Disqus
↑ Back to top | Me First And The Gimme Gimmes Tabs for I Believe I Can Fly. Lyrics for acoustic guitar and electric guitar. 1 Tablatures and chords are parodies/interpretations of the original songs. You may use it for private study, scholarship, research or language learning purposes only