» » »

Don't Let The Sun Go Down On Me Bass tabs (ver.1)

Artists:  A B C D E F G H I J K L M N O P Q R S T U V W X Y Z # 

Don't Let The Sun Go Down On Me Bass tabs (ver.1)

Me First And The Gimme Gimmes
Rating:
0/5 (0 votes)

Hard to play? Try these video lessons and learn fast.
                CHORUS at 01:20 *=play 14X
G---------------------------------------------------+
D---------------------------------------------------+
A-3*----1*----0*----5*----3*----------3*----1*------+
E-------------------------------3*----------------1-+

END-CHORUS at 01:40 *=play 14X
G--------------------------------------+
D--------------------------------------+
A-----------3*----1*----0*-------------+
E-1-1--3-3--------------------3*----1*-+

VERSE *=play 14X
G-(--------------------------------)--------------+
D-(--------------------------------)--------------+
A-(------------3*----3*------------)--------------+
E-(3*----3*----------------1*----1*)----3*----3*--+

Then play brackets of VERSE.

END-VERSE *=play 14X
G----------+
D----------+
A-3*-------+
E-------3*-+

Then play CHORUS.

END-CHORUS2 at 02:46 *=play 14X
G--------------------------------------+
D--------------------------------------+
A-----------3*----1*----0*----------1*-+
E-1-1--3-3--------------------4*-------+

Then play CHORUS.

END-CHORUS3 at 03:17 *=play 14X
G--------------------------------------------------+
D--------------------------------------------------+
A-----------3-3-3-3--1-1-1-1--0-0-0-0-------1-1--3-+
E-1-1--3-3-----------------------------4-4---------+
            
Hard to play? Try these video lessons and learn fast. | Correct




comments powered by Disqus
↑ Back to top | Tablatures and chords are parodies/interpretations of the original songs. You may use it for private study, scholarship, research or language learning purposes only