» » »

Leaving On A Jetplane Bass tabs (ver.1)

Artists:  A B C D E F G H I J K L M N O P Q R S T U V W X Y Z # 

Leaving On A Jetplane Bass tabs (ver.1)

Me First And The Gimme Gimmes
Rating:
0/5 (0 votes)

Hard to play? Try these video lessons and learn fast.
                
Intro
G:------------------------|
D:-3/555555553/55553/5555-|
A:------------------------|x2
E:------------------------|

Verse 1
G:------------------------------------------------------------------|
D:-55555555--------55555555--------55555555-------------------------|
A:---------33333333--------33333333--------333333335555555555555555-|x1
E:------------------------------------------------------------------|

G:------------------------------------------------------------------|
D:-55555555--------55555555------3355555555-------------------------|
A:---------33333333--------335577----------33333333555555555--------|x1
E:------------------------------------------------------------------|

Chorus
G:------------------------------------------------------------------|
D:------------------------------------------------------------------|
A:---------33333333--------33333333--------333333335555555555555555-|x2
E:-33333333--------33333333--------33333333-------------------------|

G:------------------|
D:------------------|
A:-5555555555555555-|x1
E:------------------|

Verse 2
G:------------------------------------------------------------------|
D:-----------2-3-5-----------2-3-5-----------2-3-5---445577--445577-|
A:---2-3-5-3---------2-3-5-3---------2-3-5-3-------55------55-------|x1
E:-3---------------3---------------3--------------------------------|

G:------------------------------------------------------------------|
D:------------------------------------------------------------------|
A:---------33333333--------33333333--------333333335555555555555555-|x1
E:-33333333--------33333333--------33333333-------------------------|

Chorus

Verse 3
G:------------------------------------------------------------------|
D:-55555555--------55555555--------55555555-------------------------|
A:---------33333333--------33333333--------333333335555555555555555-|x1
E:------------------------------------------------------------------|

G:------------------------------------------------------------------|
D:-55555555--------55555555--------55555555-------------------------|
A:---------33333333--------33333333--------33333333555555555--------|x1
E:------------------------------------------------------------------|

Chorus

Outro
G:------------------------------------------------------------------|
D:-----------------5~~~----5~~~----5~~~----5~~~----55555555/12------|
A:------------------------------------------------------------------|x1
E:-3~~~------------3~~~----3~~~----3~~~----3~~~---------------------|
            
Hard to play? Try these video lessons and learn fast. | Correct




comments powered by Disqus
↑ Back to top | Tablatures and chords are parodies/interpretations of the original songs. You may use it for private study, scholarship, research or language learning purposes only