» » »

Me First And The Gimme Gimmes, Jolene Tabs (ver.1)

Artists:  A B C D E F G H I J K L M N O P Q R S T U V W X Y Z # 

Jolene Tabs (ver.1)

Me First And The Gimme Gimmes Tabs
 Rating:
3.7/5 (6 votes)
Jolene lessons Tabs too difficult? Try these video lessons and learn fast
1
                
Intro
e---"--------"-|
b--2---"--"-2--|
g--2--5--4--2--|
d--2--5--4--2--|
a--0--3--2--0--|
E--------------|

e--5-5-5-5--|
b---5-5-5-5-|
g-----------|
d-----------|
a-----------|
E-----------|

Verse
e---"--------"-------|
b--2---"--"-2--------|
g--2--5--4--2---"--"-|
d--2--5--4--2--5--7--|
a--0--3--2--0--5--7--|
E--------------3--5--|


Solo- guitar 2
      x 2
e--------------|
b---------"--"-|
g---"--"-7--9--|
d--5--3--7--9--|
a--5--3--5--7--|
E--3--1--------|

Then back to verse

e---"------------|
b--2---"--"-2--2-|
g--2--5--4--2--2-|
d--2--5--4--2--2-|
a--0--3--2--0--0-|
E----------------|

Il tab the guitar 1 solo another time.


Pigeon!
            
Submit corrections

comments powered by Disqus
↑ Back to top | Me First And The Gimme Gimmes Tabs for Jolene. Lyrics for acoustic guitar and electric guitar. 1 Tablatures and chords are parodies/interpretations of the original songs. You may use it for private study, scholarship, research or language learning purposes only