» » »

Me First And The Gimme Gimmes, Jolene Tabs (ver.2)

Artists:  A B C D E F G H I J K L M N O P Q R S T U V W X Y Z # 

Jolene Tabs (ver.2)

Me First And The Gimme Gimmes Tabs
 Rating:
4/5 (4 votes)
Jolene lessons Tabs too difficult? Try these video lessons and learn fast
1
                -------------------------------------------------------------------------------
                Jolene - Me First and the Gimme Gimmes
-------------------------------------------------------------------------------

Tuning: EADGBe


Intro Guitar 1

e|---------------------------------------------------------------------|
B|---------------------------------------------------------------------|
G|-2-2-2-2-2-2-2-2--5-5-5-5-5-5-5-5--4-4-4-4-4-4-4-4--2-2-2-2-2-2-2-2--|
D|-2-2-2-2-2-2-2-2--5-5-5-5-5-5-5-5--4-4-4-4-4-4-4-4--2-2-2-2-2-2-2-2--| X 4
A|-0-0-0-0-0-0-0-0--3-3-3-3-3-3-3-3--2-2-2-2-2-2-2-2--0-0-0-0-0-0-0-0--|
E|---------------------------------------------------------------------|

Guitar 2
e|-5----------------5----------------5----------------5-------5--------|
B|---------5----------------5----------------5------------5--------5---|
G|---------------------------------------------------------------------|
D|---------------------------------------------------------------------| x 1
A|---------------------------------------------------------------------|
E|---------------------------------------------------------------------|


Chorus 
e|---------------------------------------------------------------------|
B|---------------------------------------------------------------------|
G|-2-2-2-2-2-2-2-2--5-5-5-5-5-5-5-5------------------------------------|
D|-2-2-2-2-2-2-2-2--5-5-5-5-5-5-5-5--5-5-5-5-5-5-5-5--7-7-7-7-7-7-7-7--|
A|-0-0-0-0-0-0-0-0--3-3-3-3-3-3-3-3--5-5-5-5-5-5-5-5--7-7-7-7-7-7-7-7--|
E|-----------------------------------3-3-3-3-3-3-3-3--5-5-5-5-5-5-5-5--|
                                                                         X 2
e|---------------------------------------------------------------------|
B|---------------------------------------------------------------------|
G|---------------------------------------------------------------------|
D|-5-5-5-5-5-5-5-5-5-5-5-5-5-5-5-5--7-7-7-7-7-7-7-7-7-7-7-7-7-7-7-7----|
A|-5-5-5-5-5-5-5-5-5-5-5-5-5-5-5-5--7-7-7-7-7-7-7-7-7-7-7-7-7-7-7-7----|
E|-3-3-3-3-3-3-3-3-3-3-3-3-3-3-3-3--5-5-5-5-5-5-5-5-5-5-5-5-5-5-5-5----|


Verse - Palm muted
e|---------------------------------------------------------------------|
B|---------------------------------------------------------------------|
G|---------------------------------------------------------------------|
D|-2-2-2-2-2-2-2-2--5-5-5-5-5-5-5-5--4-4-4-4-4-4-4-4--2-2-2-2-2-2-2-2--| 
A|-0-0-0-0-0-0-0-0--3-3-3-3-3-3-3-3--2-2-2-2-2-2-2-2--0-0-0-0-0-0-0-0--|
E|---------------------------------------------------------------------|
                                                                         X 2
e|---------------------------------------------------------------------|
B|---------------------------------------------------------------------|
G|---------------------------------------------------------------------|
D|---------------------------------------------------------------------|
A|-5-5-5-5-5-5-5-5-5-5-5-5-5-5-5-5--7-7-7-7-7-7-7-7-7-7-7-7-7-7-7-7----|
E|-3-3-3-3-3-3-3-3-3-3-3-3-3-3-3-3--5-5-5-5-5-5-5-5-5-5-5-5-5-5-5-5----|


Chorus
e|---------------------------------------------------------------------|
B|---------------------------------------------------------------------|
G|-2-2-2-2-2-2-2-2--5-5-5-5-5-5-5-5------------------------------------|
D|-2-2-2-2-2-2-2-2--5-5-5-5-5-5-5-5--5-5-5-5-5-5-5-5--7-7-7-7-7-7-7-7--|
A|-0-0-0-0-0-0-0-0--3-3-3-3-3-3-3-3--5-5-5-5-5-5-5-5--7-7-7-7-7-7-7-7--|
E|-----------------------------------3-3-3-3-3-3-3-3--5-5-5-5-5-5-5-5--|
                                                                         X 2
e|---------------------------------------------------------------------|
B|---------------------------------------------------------------------|
G|---------------------------------------------------------------------|
D|-5-5-5-5-5-5-5-5-5-5-5-5-5-5-5-5--7-7-7-7-7-7-7-7-7-7-7-7-7-7-7-7----|
A|-5-5-5-5-5-5-5-5-5-5-5-5-5-5-5-5--7-7-7-7-7-7-7-7-7-7-7-7-7-7-7-7----|
E|-3-3-3-3-3-3-3-3-3-3-3-3-3-3-3-3--5-5-5-5-5-5-5-5-5-5-5-5-5-5-5-5----|


Solo
e|-------------------------------------------------12----15--12-12-15--|
B|-10----10----10----10----10----12----13----15----15b17---------------|
G|-12b14-12b14-12b14-12b14-12b14-14b16-15b17-17b19---------------------|
D|---------------------------------------------------------------------|
A|---------------------------------------------------------------------|
E|---------------------------------------------------------------------|

e|-10-12-15--12-12-15--10-12-15--10-12-15-----12----12-----------------|
B|-----------------------------------------15----15-15b17-(Let-ring)---|
G|---------------------------------------------------------------------|
D|---------------------------------------------------------------------|
A|---------------------------------------------------------------------|
E|---------------------------------------------------------------------|

e|----------------------------8-8-7------------------------------------|
B|------------------------10--------10-------------9---9---------------|
G|-------------9-10---10---------------10--7---7/9---9-----------------|
D|---7---7--10---------------------------------------------------------|
A|---------------------------------------------------------------------|
E|---------------------------------------------------------------------|


Rythem during solo
e|---------------------------------------------------------------------|
B|---------------------------------------------------------------------|
G|-----------------------------------7-7-7-7-7-7-7-7--9-9-9-9-9-9-9-9--|
D|-7-7-7-7-7-7-7-7--3-3-3-3-3-3-3-3--7-7-7-7-7-7-7-7--9-9-9-9-9-9-9-9--| X 2
A|-7-7-7-7-7-7-7-7--3-3-3-3-3-3-3-3--5-5-5-5-5-5-5-5--7-7-7-7-7-7-7-7--|
E|-5-5-5-5-5-5-5-5--1-1-1-1-1-1-1-1------------------------------------|


Chorus
e|---------------------------------------------------------------------|
B|---------------------------------------------------------------------|
G|-2-2-2-2-2-2-2-2--5-5-5-5-5-5-5-5------------------------------------|
D|-2-2-2-2-2-2-2-2--5-5-5-5-5-5-5-5--5-5-5-5-5-5-5-5--7-7-7-7-7-7-7-7--|
A|-0-0-0-0-0-0-0-0--3-3-3-3-3-3-3-3--5-5-5-5-5-5-5-5--7-7-7-7-7-7-7-7--|
E|-----------------------------------3-3-3-3-3-3-3-3--5-5-5-5-5-5-5-5--|
                                                                         X 2
e|---------------------------------------------------------------------|
B|---------------------------------------------------------------------|
G|---------------------------------------------------------------------|
D|-5-5-5-5-5-5-5-5-5-5-5-5-5-5-5-5--7-7-7-7-7-7-7-7-7-7-7-7-7-7-7-7----|
A|-5-5-5-5-5-5-5-5-5-5-5-5-5-5-5-5--7-7-7-7-7-7-7-7-7-7-7-7-7-7-7-7----|
E|-3-3-3-3-3-3-3-3-3-3-3-3-3-3-3-3--5-5-5-5-5-5-5-5-5-5-5-5-5-5-5-5----|


Outro - Guitar 1
e|----------------------------------------------------------------------|
B|----------------------------------------------------------------------|
G|-2-2-2-2-2-2-2-2--5-5-5-5-5-5-5-5-------------------2-----2-----------|
D|-2-2-2-2-2-2-2-2--5-5-5-5-5-5-5-5--5-5-5-5-5-5-5-5--2-----2-----------| X 1
A|-0-0-0-0-0-0-0-0--3-3-3-3-3-3-3-3--5-5-5-5-5-5-5-5--0-----0-----------|
E|-----------------------------------3-3-3-3-3-3-3-3--------------------|

Outro - Guitar 2
e|-5----------------5----------------5-------5--------5-----------------|
B|---------5----------------5------------5--------5---------------------|
G|----------------------------------------------------------2-----------| X 1
D|----------------------------------------------------------2-----------|
A|----------------------------------------------------------0-----------|
E|----------------------------------------------------------------------|



************************************

| /   slide up
| \   slide down
| h   hammer-on
| p   pull-off
| ~   vibrato
| +   harmonic
| x   Mute note
| b   Bend
| pb  Pre-bend
| br  Bend release
| pbr Pre-bend release
| brb Bend release bend

************************************
            
Submit corrections

comments powered by Disqus
↑ Back to top | Me First And The Gimme Gimmes Tabs for Jolene. Lyrics for acoustic guitar and electric guitar. 1 Tablatures and chords are parodies/interpretations of the original songs. You may use it for private study, scholarship, research or language learning purposes only