» » »

Marilyn Manson, Count To Six And Die Tabs (ver.2)

Artists:  A B C D E F G H I J K L M N O P Q R S T U V W X Y Z # 

Count To Six And Die Tabs (ver.2)

Marilyn Manson Tabs
Rating:
0/5 (0 votes)
Count To Six And Die lessons Tabs too difficult? Try these video lessons and learn fast
                Dif.: 6

NOTE: This is piano arranged for guitar that’s why I didn’t say guitarist up there....

Intro
A|-7------7----7------7---|
E|-0------0----0------0---|

Verse Part 1 (Guitar 1)
A|---7---7---7---7---7---7---7---7--|
E|-7---7---6---6---5---5---0---0----|

Verse Part 2 (Guitar 2) (“I’ve got an angel...”)
E|--12-15-12--------12-15-12--------12-15-12----------------------|
B|--------------12---------------11----------------10-------------|
G|----------------------------------------------------11-11-12-9--|

Chorus (Soft synth. arr. for Guitar 3) (“And it spins around..”)
E|-----------17-19------17------|----|----------17----------------|
B|-17-19-20---------20------19--|-3x-|-17-19-20----20-19-20-19-17-|

Outro (Guitar 1) (Very lightly)
A|-7---7---7---7---7-|
E|---7---6---5---0---|

Outro (Guitar 2) - Do Chorus guitar 3 part normally... (No soft synth. cr*p)

Song Structure: -
Loading of gun
Intro
Verse Part 1 (Guitar 1)
Verse Part 1 (Guitar 1)/Verse Part 2 (Guitar 2)
Verse Part 1 (Guitar 1)/Verse Part 2 (Guitar 2)/Chorus (Guitar 3)
Outro (Guitar 1)/Outro (Guitar 2)
Shooting of gun then fireworks
            
Submit corrections

comments powered by Disqus
↑ Back to top | Marilyn Manson Tabs for Count To Six And Die. Lyrics for acoustic guitar and electric guitar. Tablatures and chords are parodies/interpretations of the original songs. You may use it for private study, scholarship, research or language learning purposes only