>
 >
Count To Six And Die

Count To Six And Die Guitar Tabs

Marilyn Manson - Count To Six And Die chords, tabs, tablatures, lyrics

Guitar lessons | Add/correct | Request | Top 50 tabs Artists:  A B C D E F G H I J K L M N O P Q R S T U V W X Y Z 0-9

Count To Six And Die Guitar Tabs – Marilyn Manson

CD, Sheet music, Poster

Do you like Count To Six And Die? Share with your friends now
TabsTabs v2Tabs v3
Marilyn Manson
Count to Six and Die
HolyWood

This tab just has the first piano part transcribed for guitar. A good song to play when you are depressed. Turn all the lights out, hit play on the CD player and play along quietly. The perfect depressive partner.

Intro
D-----------------------------|
A-----------------------------|
E-----0-----0-----0-----0-----|

Verse
D-----------------------------|
A------7-------7------7-----7-|
E---7------7------6------6----|

D-----------------------------|
A------7-------7------7-----7-|
E---5------5------0------0----|

Chorus (And it spins around....)
The same but convert to power chords so:
G-------9------9------9------9--|
D---9---9-9---9-8---9--8---9--|
A---9---7-9---7--8---7--8--7--|
E---7------7------6------6------|

G-------9------9------9------9--|
D---7---9--7---9--0---9--0---9--|
A---7---7--7---7-0---7--0---7--|
E---5------5------0------0------|

Verse to end

The lead piano part is as follows:
E---12-15-12------12-15-12------12-15-12--------------------|
B------------12------------11------------10-----------------|
G---------------------------------------------11-11-12-11-9-|

The outro piano part is:
E---12-14-15-17-19-15-17-14-|%|%|---12-14-15-17-15-14-15-14-12---|
B----------------------------------------------------------------|
G----------------------------------------------------------------|





Comments


Popular Marilyn Manson tabs & chords
Born Again Bass Tabs
Negative 3 Bass Tabs
The Speed Of Pain Chords
Get Your Gun Tabs
Lamb Of God 2 Tabs
Putting Holes In Happiness 1 Tabs
The Beatiful People Tabs
The Nobodies Tabs
Iv-tv Ukulele
Leave A Scar Ukulele


Song lyrics



↑ Back to top | Tablatures and chords are parodies/interpretations of the original songs. You may use it for private study, scholarship, research or language learning purposes only
© 2014 AZChords.com Contact us | Privacy policy | DMCA | Add/correct tabs | Request tabs | Top 50 tabs