» » »

Count To Six And Die Tabs (ver.1)

Artists:  A B C D E F G H I J K L M N O P Q R S T U V W X Y Z # 

Count To Six And Die Tabs (ver.1)

Marilyn Manson
Rating:
0/5 (0 votes)

Hard to play? Try these video lessons and learn fast.
                Marilyn Manson
Count to Six and Die
HolyWood

This tab just has the first piano part transcribed for guitar. A good song to play when you are depressed. Turn all the lights out, hit play on the CD player and play along quietly. The perfect depressive partner.

Intro
D-----------------------------|
A-----------------------------|
E-----0-----0-----0-----0-----|

Verse
D-----------------------------|
A------7-------7------7-----7-|
E---7------7------6------6----|

D-----------------------------|
A------7-------7------7-----7-|
E---5------5------0------0----|

Chorus (And it spins around....)
The same but convert to power chords so:
G-------9------9------9------9--|
D---9---9—-9---9—-8---9--8---9--|
A---9---7—-9---7--8---7--8—--7--|
E---7------7------6------6------|

G-------9------9------9------9--|
D---7---9--7---9--0---9--0---9--|
A---7---7--7---7—-0---7--0---7--|
E---5------5------0------0------|

Verse to end

The lead piano part is as follows:
E---12-15-12------12-15-12------12-15-12--------------------|
B------------12------------11------------10-----------------|
G---------------------------------------------11-11-12-11-9-|

The outro piano part is:
E---12-14-15-17-19-15-17-14-|%|%|---12-14-15-17-15-14-15-14-12---|
B----------------------------------------------------------------|
G----------------------------------------------------------------|
            
Hard to play? Try these video lessons and learn fast. | Correct




comments powered by Disqus
↑ Back to top | Tablatures and chords are parodies/interpretations of the original songs. You may use it for private study, scholarship, research or language learning purposes only