» » »

Count To Six And Die Tabs (ver.3)

Artists:  A B C D E F G H I J K L M N O P Q R S T U V W X Y Z # 

Count To Six And Die Tabs (ver.3)

Marilyn Manson
Rating:
0/5 (0 votes)

Hard to play? Try these video lessons and learn fast.
                Count to six and die
tuning: standard

this is the piano part for the guitar. 

1:03
|--12--15-14-----12--15-14-----12--15-14---------------------|
|------------12------------11------------10------------------|
|--------------------------------------------11-11--12-11-9--|
|------------------------------------------------------------|
|------------------------------------------------------------|
|------------------------------------------------------------|

2:30
|--12--14--15--17--19--15--17--14----12--14--15--17--19--15--17--14--
|--------------------------------------------------------------------
|--------------------------------------------------------------------
|--------------------------------------------------------------------
|--------------------------------------------------------------------
|--------------------------------------------------------------------

|--12--14--15--17--19--15--17--14--12--14--15--17--15--14--15--14--12--|
|----------------------------------------------------------------------|
|----------------------------------------------------------------------|
|----------------------------------------------------------------------|
|----------------------------------------------------------------------|
|----------------------------------------------------------------------|

That’s all.
Enjoy. =)
            
Hard to play? Try these video lessons and learn fast. | Correct




comments powered by Disqus
↑ Back to top | Tablatures and chords are parodies/interpretations of the original songs. You may use it for private study, scholarship, research or language learning purposes only