» » »

Marilyn Manson, Beautiful People Arr. Keyboard Tabs (ver.1)

Artists:  A B C D E F G H I J K L M N O P Q R S T U V W X Y Z # 

Beautiful People Arr. Keyboard Tabs (ver.1)

Marilyn Manson Tabs
 Rating:
4/5 (4 votes)
Beautiful People Arr. Keyboard lessons Tabs too difficult? Try these video lessons and learn fast
1
                Marilyn manson 
Beautiful people

verse (No keyboards)

Pre chorus,

The voices given are just a basic outline
of the actual sound which is always synthesised.

You cant smell your own sh*t on your knees,

e------------------------------------------
B------------------------------------------
G------------------------------------------
D------------------------------------------
A--------------------------5~~~~~~~~~~~~~~~
E------------------------------------------
        (Synth brass)      Volume swell

e---5555---5555---5555---5555----
B----------------------8---------
G-7------6------5----------------
D----------------------5~~~~~~~~~
A-5~~~~~~4~~~~~~3~~~~~~----------
E--------------------------------
(A and D strings are synth brass
and the rest is synth chorus)

Theres no time to................

e---5555---5555---5555---5555----
B----------------------8---------
G-7------6------5----------------
D----------------------5~~~~~~~~~
A-5~~~~~~4~~~~~~3~~~~~~----------
E--------------------------------

chorus (no keyboards)

verse 2

The worms live.......     Its hard to pick........
e------------------------10~~~~~~~~~~~~~~~~~~~~~~~
B-3~~~~~~~~~~~~~~~~~~~~~~-------------------------
G-------------------------------------------------
D-------------------------------------------------
A-------------------------------------------------
E-------------------------------------------------
(Thick Lead)

The horrible people....  Its all anatomic........
e------------------------10~~~~~~~~~~~~~~~~~~~~~~~
B-3~~~~~~~~~~~~~~~~~~~~~~-------------------------
G-------------------------------------------------
D-------------------------------------------------
A-------------------------------------------------
E-------------------------------------------------

Capitalism.....          Old fashioned......
e~(10)~~~~~~~~~~~~~~~~~~~22~~~~~~~~~~~~~~~~~~~~~~~
B-------------------------------------------------
G-------------------------------------------------
D-------------------------------------------------
A-------------------------------------------------
E-------------------------------------------------

                       ...HARD TO BE CLEAN!
e------------------------------------------
B------------------------------------------
G------------------------------------------
D------------------------------------------
A--------------------------5~~~~~~~~~~~~~~~
E------------------------------------------
        (Synth brass)      Volume swell

e---5555---5555---5555---5555----
B----------------------8---------
G-7------6------5----------------
D----------------------5~~~~~~~~~
A-5~~~~~~4~~~~~~3~~~~~~----------
E--------------------------------
(A and D strings are synth brass
and the rest is synth chorus)

Theres no time to................

e---5555---5555---5555---5555----
B----------------------8---------
G-7------6------5----------------
D----------------------5~~~~~~~~~
A-5~~~~~~4~~~~~~3~~~~~~----------
E--------------------------------


Outro

The beautiful people the beautiful people
e------------------------------------------
B-3~~~~~~~~~~~~~~~~~~~~~~~~~~~~~~~~~~~~~~~~
G------------------------------------------
D------------------------------------------
A------------------------------------------
E------------------------------------------
(Thick lead)

The beautiful people the beautiful people
e-22~~~~~~~~~~~~~~~~~~~~~~~~~~~~~~~~~~~~~~~
B----14~~~~~~~~~~~~~~~~~~~~~~~~~~~~~~~~~~~~
G------------------------------------------
D------------------------------------------
A------------------------------------------
E------------------------------------------

THE LAST 2 LINES ARE BASICALLY THE SAME BUT WITH AN A OR Ab
THROWN IN.

This might not seem like a simple guitar tab because of my choice 
of strings used but its intended to be played on a keyboard

AKstar***
            
Submit corrections

comments powered by Disqus
↑ Back to top | Marilyn Manson Tabs for Beautiful People Arr. Keyboard. Lyrics for acoustic guitar and electric guitar. 1 Tablatures and chords are parodies/interpretations of the original songs. You may use it for private study, scholarship, research or language learning purposes only