>
 >
Angel With The Scabbed Wings 2

Angel With The Scabbed Wings 2 Bass Tabs

Marilyn Manson - Angel With The Scabbed Wings 2 chords, tabs, tablatures, lyrics

Guitar lessons | Add/correct | Request | Top 50 tabs Artists:  A B C D E F G H I J K L M N O P Q R S T U V W X Y Z 0-9

Angel With The Scabbed Wings 2 Bass Tabs – Marilyn Manson

CD, Sheet music, Poster

Do you like Angel With The Scabbed Wings 2? Share with your friends now
Bass TabsBass Tabs v2Bass Tabs v3
Bassist: Twiggy Ramirez
Tuning: Drop D (DADG)

i haven't been able to find an accurate tab for this song so i decided to give it a go

INTRO/MAIN RIFF: 0:07-0:25

G|--------------------------------------------------------|
D|--------------------------------------------------------|
A|--------------------------------------------------------|
D|--1/13\2--1----2----3----4--2--1--2----3----4--2--1-----|
^ only play the slide part once then go to the main riff below

G|------------------------|
D|------------------------|
A|------------------------|
D|--2----3----4--2--1-----|
^ this is the main riff played for a good majority of the song, play around with it a
bit. i think Twiggy may bend the strings a little on the 2,3,4's.

INTRO PART 2: 0:26-0:44

this is the part right after you play the main riff a couple times and right before
Manson starts singing. this is also the outro of the song.

G|-------------------------------------|
D|-------------------------------------|
A|--666666667777777666666667777774444--|
D|-------------------------------------|

G|-------------------------------------|
D|-------------------------------------|
A|--666666667777777666666667777779999--|
D|-------------------------------------|


D|--2-1--------------------------------|
^right before Manson starts singing.

PRE-CHORUS: 1:10-1:27

G|----------------------------|
D|----------------------------|
A|----------------------------|
D|--2-1--x-xx-xx-xxxx---------|
^"dead is what he is..."

CHORUS: 1:28-1:45

G|-------------------------------------|
D|-------------------------------------|
A|------------------------------5-5----|
D|--6--6/--9/----12--111-11-11---------|
*those are 1's not 11's, the 12 is a 12 though.

after this, play the main riff until 2:14, then the chorus.

BRIDGE: 2:32-2:49

G|------------------------|----------------------------|
D|------------------------|----------------------------|
A|------------------------|-------------7777778888889--|
D|--1/8-7----2--3--4------|--1/8-7---------------------|
^"get back.."
 

OUTRO: 3:12-3:52

G|-------------------------------------|
D|-------------------------------------|
A|--666666667777777666666667777774444--|
D|-------------------------------------|

G|-------------------------------------|
D|-------------------------------------|
A|--666666667777777666666667777779999--|
D|-------------------------------------|

and that's it!





Comments


Popular Marilyn Manson tabs & chords
Deformography Bass Tabs
Tainted Love Chords
King Kill Drum Tabs
***Ty Chicken Gang Bang Tabs
Anti Christ Superstar 1 Tabs
Coma Black 1 Tabs
If I Was Your Vampire 2 Tabs
Suicide Snowman Tabs
White Trash 1 Tabs
Running To The Edge Of The World Ukulele


Song lyrics



↑ Back to top | Tablatures and chords are parodies/interpretations of the original songs. You may use it for private study, scholarship, research or language learning purposes only
© 2014 AZChords.com Contact us | Privacy policy | DMCA | Add/correct tabs | Request tabs | Top 50 tabs