» » »

Marilyn Manson, Angel With Scabbed Wings Bass tabs (ver.2)

Artists:  A B C D E F G H I J K L M N O P Q R S T U V W X Y Z # 

Angel With Scabbed Wings Bass tabs (ver.2)

Marilyn Manson Tabs
 Rating:
3.6/5 (5 votes)
Angel With Scabbed Wings lessons Tabs too difficult? Try these video lessons and learn fast
1
                ANGEL WITH THE SCABBED WINGS
DROP D

Start at 0:07
G|-----------------------|
D|-----------------------|
A|-----------------------|
D|--12/1-0-xx-xx-xxx-x---|

G|--------------------|
D|--------------------|
A|--------------------|
D|--1-0-xx-xx-xxx-x---|

Chorus-
"He is the maker..."
G|---------------------------------|
D|---------------------------------|
A|-------------------------565-----|
D|--5-55--8-86-00-00--000-0----0---|x3

"he is the raper"
G|-------------------------------|
D|-------------------------------|
A|-------------------------------|
D|--5-55--8-86-00-00--0-00--12/--|

G|-----------------------|
D|-----------------------|
A|-----------------------|
D|--1-0--011-1222-3------| x3

G|------------------------------------|
D|------------------------------------|
A|------------------------------------|
D|--1-0--011-1222-3--1-0--pause--12/--|

G|-----------------------|
D|-----------------------|
A|-----------------------|
D|--1-0--011-1222-3------|x8

"He is the maker..."
G|---------------------------------|
D|---------------------------------|
A|--------------------------565----|
D|--5-55--8-86-00-00--000--0---0---| x3

"He is the raper"
G|-------------------------------|
D|-------------------------------|
A|-------------------------------|
D|--5-55--8-86-00-00--0-00--12/--|

Bridge-
"Get Back.."
G|----------------------------------------|
D|----------------------------------------|
A|----------------------------------------|
D|--0-0-8-8-7-7-6/12/-1-1-1-2-2-2-3-3-3---|x3

G|---------------------------------------------|
D|---------------------------------------------|
A|---------------------------------------------|
D|--0-0-8-8-7-7-6/12-12-12-13-13-13-14-14-14---|
           (twelve, thirteen, fouteen; NOT one, two..)

"I am the angel with the scabbed wings..."
G|-----------------|
D|-----------------|
A|--------0--------|
D|--1-0-xx1-xx-xx--|

Outro-
"Rock & roll sores"
G|---------------------------|
D|---------------------------|
A|---------------------------|
D|--1-0--12-1212-1313-10-1010|
       (twelve, thirteen, ten; NOT one, two..)

G|-----|
D|-----|
A|-----|
D|-1-0-|
            
Submit corrections

comments powered by Disqus
↑ Back to top | Marilyn Manson Bass for Angel With Scabbed Wings. Lyrics for acoustic guitar and electric guitar. 1 Tablatures and chords are parodies/interpretations of the original songs. You may use it for private study, scholarship, research or language learning purposes only