» » »

Marilyn Manson, Angel With Scabbed Wings Tabs (ver.3)

Artists:  A B C D E F G H I J K L M N O P Q R S T U V W X Y Z # 

Angel With Scabbed Wings Tabs (ver.3)

Marilyn Manson Tabs
 Rating:
4/5 (4 votes)
Angel With Scabbed Wings lessons Tabs too difficult? Try these video lessons and learn fast
                Angel With The Scabbed Wings
       Album- Antichrist Superstar


Tuning: Drop D
(D a d g b e)

X- dont play
^- bend



Intro

E|-------------|
B|-------------|
G|-------------|
D|-2-3--4-2-1--|
A|-2-3--4-2-1--|
D|-2-3--4-2-1--|

Intro (In the background)
E|--------11---------11--| (Bend up and down)
B|-10----------10--------|

Intro Part 2 (Gtr. 1)
D|-2-1-X-X-X-X-8-X-X-X-X-|                |-2-1-X-X-X-X-8-8-6-6-6--|
A|-2-1-X-X-X-X-7-X-X-X-X-|<--Play 3 times |-2-1-X-X-X-X-7-7-5-5-5--|
D|-2-1-X-X-X-X-8-X-X-X-X-|                |-2-1-X-X-X-X-8-8-6-6-6--|

Intro Part 2 (In the background)
B|--------11^---9---------11-------10----10\---2---4--|
G|-8--------------------------------------------------|
           

Verse 1 (He is..)
D|-------------1---------|
A|-------------0---------|
D|-2-1-X-X-X-X-1-X-X-X-X-|

Verse Part 2 (Dead is what ..)
D|-2-1-X-X-X-X--X-X-X-X--|
A|-2-1-X-X-X-X--X-X-X-X--|
D|-2-1-X-X-X-X--X-X-X-X--|

Chorus (He is the maker ...)
D|--6----9----13---1-1-1-1-1-1-1-1--|
A|--6----9----13---1-1-1-1-1-1-1-1--|
D|--6----9----13---1-1-1-1-1-1-1-1--|
                   pm-------------|

Interlude 
D|-4-2-1--2-3--|
A|-4-2-1--2-3--|
D|-4-2-1--2-3--|

Bridge 
G|-3--2------------|      |-3--2---9-10--11--|
D|-3--2---2--2--2--|      |-3--2---9-10--11--|
A|-1--0---2--3--4--|3x    |-1--0---7--8---9--|
E|--------2--3--4--|      |------------------|

Bridge (In the background)
E|---------------------------|
B|--13----11---14--15--12----|

Outro 
E|-18-18-18-18-18-18-18-18------------------------------------------
B|---------------------------9/11^--9--11-11h12p11--11--10h11p10-9--
G|-------------------------8-----------------------------------------

Outro (continued)
E|--------14--11--9--11--14--11--9--11-11-18-18-18-18-18--9--11---|
B|----------------------------------------------------------------|
G|-6--8-----------------------------------------------------------|



There you go. Please rate. My first tab. ENJOY
            
Submit corrections

comments powered by Disqus
↑ Back to top | Marilyn Manson Tabs for Angel With Scabbed Wings. Lyrics for acoustic guitar and electric guitar. Tablatures and chords are parodies/interpretations of the original songs. You may use it for private study, scholarship, research or language learning purposes only