» » »

Manu Chao, Me Gustas Tú Tabs (ver.2)

Artists:  A B C D E F G H I J K L M N O P Q R S T U V W X Y Z # 

Me Gustas Tú Tabs (ver.2)

Manu Chao Tabs
Rating:
0/5 (0 votes)
Me Gustas Tú lessons Tabs too difficult? Try these video lessons and learn fast
                Manu Chao
Me Gustas Tu
Standart Tuning


The Chords for this Song are:

	Bm  -  A  -  Em  -  (Em)


Intro/Main Riff:
E-----------0----0-7---0---------
B---0-7------------------0-3-2---
G---------2----------------------
D--------------------------------
A--------------------------------
E--------------------------------


Play Chords like this:
E----2~----7~----7~----
B----3~----7~----8~----
G----4~----6~----9~----     <---- slight vibrato/whammy
D----------------------
A----------------------
E----------------------
            
Submit corrections

comments powered by Disqus
↑ Back to top | Manu Chao Tabs for Me Gustas Tú. Lyrics for acoustic guitar and electric guitar. Tablatures and chords are parodies/interpretations of the original songs. You may use it for private study, scholarship, research or language learning purposes only