» » »

Me Gustas Tú Tabs (ver.1)

Artists:  A B C D E F G H I J K L M N O P Q R S T U V W X Y Z # 

Me Gustas Tú Tabs (ver.1)

Manu Chao
Rating:
5/5 (5 votes)

Tabs too difficult? Try these video lessons and learn fast.
                Manu Chao - Me Gustas Tu



Guitar 1 :

E|----2-----0-------2-2------|
H|--0---3-----2-0-3-----0-3-2|
G|--------2------------------|
D|---------------------------|
A|---------------------------|
E|---------------------------|

Guitar 2 :

Chords:

Bm   x24432
A    577655
Em   x79987

I think its better to play the cords like this:

E|-2-2-5-5-7-7-7-7-----------|
H|-3-3-5-6-8-8-8-8-----------|
G|-4-4-6-6-9-9-9-9-----------|
D|---------------------------|
A|---------------------------|
E|---------------------------|

Guitar 3:

(sounds cool with wah-wah!)
  
E|-2~----7~----7~----------| 
H|-3~----7~----8~----------| 
G|-4~----6~--/99~----------| 
D|-------------------------| 
A|-------------------------| 
E|-------------------------|


Lyrics:

Me gustan los aviones, me gustas tu.
Me gusta viajar, me gustas tu.
Me gusta la mañana, me gustas tu.
Me gusta el viento, me gustas tu.
Me gusta soñar, me gustas tu.
Me gusta la mar, me gustas tu.

Que voy a hacer
je ne sais pas
Que voy a hacer
Je ne sais plus
Que voy a hacer
Je suis perdu
Que horas son, mi corazón 

Me gusta la moto, me gustas tu.
Me gusta correr, me gustas tu.
Me gusta la lluvia, me gustas tu.
Me gusta volver, me gustas tu.
Me gusta marihuana, me gustas tu.
Me gusta colombiana, me gustas tu.
Me gusta la montaña, me gustas tu.
Me gusta la noche, me gustas tu.

Que voy a hacer ...

Me gusta la cena, me gustas tu.
Me gusta la vecina, me gustas tu.
Me gusta su cocina, me gustas tu.
Me gusta camelar, me gustas tu.
Me gusta la guitarra, me gustas tu.
Me gusta el regaee, me gustas tu.

Que voy a hacer ...

Me gusta la canela, me gustas tu.
Me gusta el fuego, me gustas tu.
Me gusta menear, me gustas tu.
Me gusta la Coruña, me gustas tu.
Me gusta Malasaña, me gustas tu.
Me gusta la castaña, me gustas tu.
Me gusta Guatemala, me gustas tu.

Que voy a hacer
je ne sais pas
Que voy a hacer
Je ne sais plus
Que voy a hacer
Je suis perdu
Que horas son, mi corazón

The Song isn’t 100% correct, but its OK, I think!
Have fun!
            
Tabs too difficult? Try these video lessons and learn fast.




comments powered by Disqus
↑ Back to top | Tablatures and chords are parodies/interpretations of the original songs. You may use it for private study, scholarship, research or language learning purposes only