» » »

Clandestino Tabs (ver.2)

Artists:  A B C D E F G H I J K L M N O P Q R S T U V W X Y Z # 

Clandestino Tabs (ver.2)

Manu Chao
Rating:
0/5 (0 votes)

Hard to play? Try these video lessons and learn fast.
                    F#m   :244222
    Bm    :224432
    F#7/C7:243422

    F#m
    Solo voy con mi pena
                   Bm
    Sola va mi condena
                    F#7/C7
    Correr es mi destino
                    F#m
    Para burlar la ley

    Perdido en el corazon
                     Bm
    De la grande babylon
                      F#7/C7
    Me dicen el clandestino
                     F#m
    Por no llevar papel

    Pa una ciudad del norte
                     Bm
    Yo me fui a trabajar
                 F#7/C7
    Mi vida la deje
                       F#m
    Entre ceuta y gibraltar

    Soy una raya en el mar
                    Bm
    Fantasma en la ciudad
                    F#7/C7
    Mi vida va prohibida
                  F#m
    Dice la autoridad

    F#m
    Solo voy con mi pena
                   Bm
    Sola va mi condena
                    F#7/C7
    Correr es mi destino
                    F#m
    Para burlar la ley

    Perdido en el corazon
                     Bm
    De la grande babylon
                      F#7/C7
    Me dicen el clandestino
                     F#m
    Yo soy el quiebra ley

    Bm                F#m
    Mano negra clandestina
    Bm              F#m
    Peruano clandestino
    Bm               F#m
    Africano clandestino
    F#7/C7         F#m
    Marijuana ilegal

    F#m
    Solo voy con mi pena
                   Bm
    Sola va mi condena
                    F#7/C7
    Correr es mi destino
                    F#m
    Para burlar la ley

    Perdido en el corazon
                     Bm
    De la grande babylon
                      F#7/C7
    Me dicen el clandestino
                     F#m
    Por no llevar papel

Partition transcrite par pilou
Instruments : Guitare


    F#m   Bm  (jusque là OK) et C#7 (446464)

    Voilà, y a le choix maintenant.

Partition transcrite par Belek
Instruments : Guitare
    Voila le solo de Clandestino dans Radio Bemba:

    Enjoy yourself!

    -9--9--9--9--9--9--10--9---9---9---|
    -10-10-10-10-10-10-12--10--10--10--|
    -----------------------------------|
    -----------------------------------|
    -----------------------------------|
    -----------------------------------|

    10--7---------10-10-10-9--|
    12--9--10-9---12-12-12-10-|
    -------11-10--------------|
    --------------------------|
    --------------------------|
    --------------------------|

    ------9-12-10-12-10-9----10-10-10-9-|
    9-10-----------------12-------------|
    ------------------------------------|
    ------------------------------------|
    ------------------------------------|
    ------------------------------------|

    --------9--9--9--9--9--10--9---|
    12-10--10-10-10-10-10--12--10--|
    -------------------------------|
    -------------------------------|
    -------------------------------|
    -------------------------------|

    12-12-12-12-10-9--10-|
    14-14-14-14-12-10-12-|
    ---------------------|
    ---------------------|
    ---------------------|
    ---------------------|

    ------12------12------12-12-10-9-7-------------|
    -9-10----9-10----9-10--------------10-9-7-9-10-|
    -----------------------------------------------|
    -----------------------------------------------|
    -----------------------------------------------|
    -----------------------------------------------|
            
Hard to play? Try these video lessons and learn fast. | Correct




comments powered by Disqus
↑ Back to top | Tablatures and chords are parodies/interpretations of the original songs. You may use it for private study, scholarship, research or language learning purposes only