» » »

Manu Chao, Bongo Bong Tabs (ver.1)

Artists:  A B C D E F G H I J K L M N O P Q R S T U V W X Y Z # 

Bongo Bong Tabs (ver.1)

Manu Chao Tabs
Rating:
5/5 (5 votes)
Hard to play? Try these video lessons and learn fast.
                
        GUITAR ONE

e----8------8---|----8------8---|---10----------|----7-----7-|
B-------10------|-------10------|-------10~~----|-------8----|
G---------------|---------------|---------------|------------|
D---------------|---------------|---------------|------------|
A---------------|---------------|---------------|------------|
E---------------|---------------|---------------|------------|
                                                             |
	GUITAR TWO                                           |
							     |
e--17~~~~~~~----|---------------|---17~~~~~~----|------------|
B---------------|---------------|---------------|------------|
G---------------|---------------|---------------|------------|
D---------------|---------------|---------------|------------|
A---------------|---------------|---------------|------------|
E---------------|---------------|---------------|------------|

Even though the song does not have a track with the guitar chords, I am going to post 
just for your reference.
   e--5-----     --5----    --3----|
   B--5-----     --6----    --3----|
Am G--5-----  Dm --7----  G --4----|
   D--7-----     --7----    --5----|
   A--7-----     --5----    --5----|
   E--5-----     -------    --3----|

ENJOY PLAYING!
            

comments powered by Disqus
↑ Back to top | Manu Chao Tabs for Bongo Bong. Lyrics for acoustic guitar and electric guitar. Tablatures and chords are parodies/interpretations of the original songs. You may use it for private study, scholarship, research or language learning purposes only