» » »

Axe Of Redemption Tabs (ver.2)

Artists:  A B C D E F G H I J K L M N O P Q R S T U V W X Y Z # 

Axe Of Redemption Tabs (ver.2)

Manntis
Rating:
5/5 (4 votes)

Hard to play? Try these video lessons and learn fast.
                (Intro)
Manntis
axe of redeption

Tunning: Drop D

basic intro 98% correct souns good to me. so enjoy


gtr 1/2
|-----------------------------------------------|
|-----------------------------------------------|
|-----------------------------------------------|
|-----------------------------------------------|
|------5h8p5h8p5-------5h8p5h8p5-------4h7p4----|
|-000-------------000-------------000-----------|

right after.                                          ] together 2x

gtr 1/2
|-----------------------------------------------|
|-----------------------------------------------|
|-----------------------------------------------|
|-----------------------------------------------|
|------5h8p5h8p5-----------5-----------6--------|
|-000-------------00--5--7-----8--6--8-----9----|
                  ..  .  .        .  .

gtr 1
|-------------------------------------------------------------------|
|-------------------------------------------------------------------|
|-------------------------------------------------------------------|
|-------------------------------------------------------------------|
|------5h8p5h8p5-------5h8p5h8p5-------4h7p4------------------------|
|-000-------------000-------------000--------------4444-7777-33333--|

gtr 2
|-------------------------------------------------------------------|
|-------------------------------------------------------------------|
|-------------------------------------------------------------------|
|-0~~~~-------------------------------------------------------------|
|-0~~~~-------------------------------------------------------------|
|-0~~~~--------------------------------------22222-4444-7777-33333--|

so..thats pretty much the song cept the ending and chors im working on

please comment

key
. = palm mute
p = pull off
h = hamer on
~ = let ring
            
Hard to play? Try these video lessons and learn fast. | Correct




comments powered by Disqus
↑ Back to top | Tablatures and chords are parodies/interpretations of the original songs. You may use it for private study, scholarship, research or language learning purposes only