» » »

Axe Of Redemption Tabs (ver.3)

Artists:  A B C D E F G H I J K L M N O P Q R S T U V W X Y Z # 

Axe Of Redemption Tabs (ver.3)

Manntis
Rating:
5/5 (3 votes)

Hard to play? Try these video lessons and learn fast.
                Manntis 
Axe of Redemption

Intro & Verse


|-------------------------------------------------------|
|-------------------------------------------------------|
|-------------------------------------------------------|
|-------------------------------------------------------|
|----5h8p5h8p5h8p---5h8p5h8p5h8p--4h7p4h7p--5h8p5h8p5h8p|
|-00-------------00-------------00--------00------------|
  ..             ..             ..        ..

|----------------------|    |----------------------|
|----------------------|    |----------------------| 
|----------------------| or |----------------------|
|----------------------|    |-----------------1----|
|------3--2-------6--2-|    |------3--2----------2-|
|-3--5-------3--5------|    |-3--5-------3--5------|
  .  .       .  .             .  .       .  .

              (Which ever you prefer)

|------------------------------------------|
|------------------------------------------|
|------------------------------------------|
|------------------------------------------|
|----5h8p5h8p5h8p---5h8p5h8p5h8p--4h7p4h7p-|
|-00-------------00-------------00---------|
  ..             ..             ..

|------------|
|------------|(Tremlo Picking)
|------------|       or
|------------| (Fast Picking)
|-------3----|  (Same Thing)
|-2--4-----5-|

key
. = palm mute
p = pull off
h = hamer on
            
Hard to play? Try these video lessons and learn fast. | Correct




comments powered by Disqus
↑ Back to top | Tablatures and chords are parodies/interpretations of the original songs. You may use it for private study, scholarship, research or language learning purposes only