>
 >
Axe Of Redemption

Axe Of Redemption Guitar Tabs

Manntis - Axe Of Redemption chords, tabs, tablatures, lyrics

Guitar lessons | Add/correct | Request | Top 50 tabs Artists:  A B C D E F G H I J K L M N O P Q R S T U V W X Y Z 0-9

Axe Of Redemption Guitar Tabs – Manntis

CD, Sheet music, Poster

Do you like Axe Of Redemption? Share with your friends now
Bass TabsTabsTabs v2
Band: Manntis


-------
Updates
-------
[June 24, 2006] I've fixed the verses and the breakdown. I would like to
thank bledveins for pointing out my inaccuracy in the breakdown.

Notations:  . = Palm Mute
            * = Pinch Harmonic/Artificial Harmonic
            h = Hammer On
            p = Pull Off
            ~ = Let Ring

Verse 1 
[Guitar 1]
e|-----------------------------------------||
B|-----------------------------------------||
G|-----------------------------------------||
D|-----------------------------------------||
A|-----5h8p5h8p5-----5h8p5h8p5-----4h7p4h7-||
D|-000-----------000-----------000---------||
   ...           ...           ...

[Guitar 1]
e|-----------------------------------||
B|-----------------------------------||
G|-----------------------------------||
D|-----------------------------------||
A|-----5h8p5h8p5---------5-------6---||
D|-000-----------0-0-5-7---8-6-8---9-||
   ...           . . . .     . .

[Guitar 1]
e|----------------------------------------------------------||
B|----------------------------------------------------------||
G|----------------------------------------------------------||
D|----------------------------------------------------------||
A|-----5h8p5h8p5-----5h8p5h8p5-----4h7p4h7------------------||
D|-000-----------000-----------000---------1111114488884444-||
   ...           ...           ...              
[Guitar 2]
e|----------------------------------------------------------||
B|----------------------------------------------------------||
G|----------------------------------------------------------||
D|-0~-------------------------------------------------------||
A|-0~-------------------------------------------------------||
D|-0~--------------------------------------1111114488884444-||

[Both Guitars]
e|-----------------------------------------||
B|-----------------------------------------||
G|-----------------------------------------||
D|-----------------------------------------||
A|-----5h8p5h8p5-----5h8p5h8p5-----4h7p4h7-||
D|-000-----------000-----------000---------||
   ...           ...           ...

[Both Guitars]
e|-----------------------------------||
B|-----------------------------------||
G|-----------------------------------||
D|-----------------------------------||
A|-----5h8p5h8p5---------5-------6---||
D|-000-----------0-0-5-7---8-6-8---9-||
   ...           . . . .     . .

[Both Guitars]
e|----------------------------------------------------------||
B|----------------------------------------------------------||
G|----------------------------------------------------------||
D|----------------------------------------------------------||
A|-----5h8p5h8p5-----5h8p5h8p5-----4h7p4h7------------------||
D|-000-----------000-----------000---------1111114488884444-||
   ...           ...           ...

[Both Guitars]
e|-----------------------------------------||
B|-----------------------------------------||
G|-----------------------------------------||
D|-----------------------------------------||
A|-----5h8p5h8p5-----5h8p5h8p5-----4h7p4h7-||
D|-000-----------000-----------000---------||
   ...           ...           ...

[Both Guitars]
e|-----------------------------------||
B|-----------------------------------||
G|-----------------------------------||
D|-----------------------------------||
A|-----5h8p5h8p5---------5-------6---||
D|-000-----------0-0-5-7---8-6-8---9-||
   ...           . . . .     . .

[Both Guitars]
e|----------------------------------------------------------||
B|----------------------------------------------------------||
G|----------------------------------------------------------||
D|----------------------------------------------------------||
A|-----5h8p5h8p5-----5h8p5h8p5-----4h7p4h7------------------||
D|-000-----------000-----------000---------1111114488884444-||
   ...           ...           ...


Chorus
[Both Guitars]
e|-------------------------------------------------------------||
B|-------------------------------------------------------------||
G|-------------------------------------------------------------||
D|-7-7-7-7-7-7-------------------------------------------------||
A|-5-5-5-5-5-5-----8-8-8-8-8-8-----8-8-8-8-8-8-----5-5-5-5-5-5-||
D|-------------0-0-8-8-8-8-8-8-0-0-8-8-8-8-8-8-0-0-5-5-5-5-5-5-||
               . .             . .             . .

[Both Guitars]
e|------------------------------------------------------------||
B|------------------------------------------------------------||
G|------------------------------------------------------------||
D|-------------------------------------7----------7------7----||
A|-----3-3-3-3-3-3-----5-5-5-5-5-5-----5----------5------5----||
D|-0-0-3-3-3-3-3-3-0-0-5-5-5-5-5-5-0-0---00000000---0000---00-||
   . .             . .             . .   ........   ....   ..

[Both Guitars]
e|-------------------------------------------------------------------------------||
B|-------------------------------------------------------------------------------||
G|-10-10-10-10-10-10-----9-9-9-9-9-9-----10-10-10-10-10-10-----12-12-12-12-12-12-||
D|-------------------------------------------------------------------------------||
A|-8--8--8--8--8--8------7-7-7-7-7-7-----8--8--8--8--8--8------10-10-10-10-10-10-||
D|-------------------0-0-------------0-0-------------------0-0-------------------||
                     . .             . .                   . .

[Both Guitars]
e|------------------------------------------------------------------------||
B|------------------------------------------------------------------------||
G|-----10-10-10-10-10-10-----12-12-12-12-12-12----------------------------||
D|-------------------------------------------------7----------7------7----||
A|-----8--8--8--8--8--8------10-10-10-10-10-10-----5----------5------5----||
D|-0-0-------------------0-0-------------------0-0---00000000---0000---00-||
   . .                   . .                   . .   ........   ....   ..


Verse 2
[Guitar 1]
e|-----------------------------------------||
B|-----------------------------------------||
G|-----------------------------------------||
D|-----------------------------------------||
A|-----5h8p5h8p5-----5h8p5h8p5-----4h7p4h7-||
D|-000-----------000-----------000---------||
   ...           ...           ...

[Guitar 1]
e|-----------------------------------||
B|-----------------------------------||
G|-----------------------------------||
D|-----------------------------------||
A|-----5h8p5h8p5---------5-------6---||
D|-000-----------0-0-5-7---8-6-8---9-||
   ...           . . . .     . .

[Guitar 1]
e|----------------------------------------------------------||
B|----------------------------------------------------------||
G|----------------------------------------------------------||
D|----------------------------------------------------------||
A|-----5h8p5h8p5-----5h8p5h8p5-----4h7p4h7------------------||
D|-000-----------000-----------000---------1111114488884444-||
   ...           ...           ...              
[Guitar 2]
e|----------------------------------------------------------||
B|----------------------------------------------------------||
G|----------------------------------------------------------||
D|-0~-------------------------------------------------------||
A|-0~-------------------------------------------------------||
D|-0~--------------------------------------1111114488884444-||

[Both Guitars]
e|-----------------------------------------||
B|-----------------------------------------||
G|-----------------------------------------||
D|-----------------------------------------||
A|-----5h8p5h8p5-----5h8p5h8p5-----4h7p4h7-||
D|-000-----------000-----------000---------||
   ...           ...           ...

[Both Guitars]
e|-----------------------------------||
B|-----------------------------------||
G|-----------------------------------||
D|-----------------------------------||
A|-----5h8p5h8p5---------5-------6---||
D|-000-----------0-0-5-7---8-6-8---9-||
   ...           . . . .     . .

[Both Guitars]
e|----------------------------------------------------------||
B|----------------------------------------------------------||
G|----------------------------------------------------------||
D|----------------------------------------------------------||
A|-----5h8p5h8p5-----5h8p5h8p5-----4h7p4h7------------------||
D|-000-----------000-----------000---------1111114488884444-||
   ...           ...           ...

[Both Guitars]
e|-----------------------------------------||
B|-----------------------------------------||
G|-----------------------------------------||
D|-----------------------------------------||
A|-----5h8p5h8p5-----5h8p5h8p5-----4h7p4h7-||
D|-000-----------000-----------000---------||
   ...           ...           ...

[Both Guitars]
e|-----------------------------------||
B|-----------------------------------||
G|-----------------------------------||
D|-----------------------------------||
A|-----5h8p5h8p5---------5-------6---||
D|-000-----------0-0-5-7---8-6-8---9-||
   ...           . . . .     . .

[Both Guitars]
e|----------------------------------------------------------||
B|----------------------------------------------------------||
G|----------------------------------------------------------||
D|----------------------------------------------------------||
A|-----5h8p5h8p5-----5h8p5h8p5-----4h7p4h7------------------||
D|-000-----------000-----------000---------1111114488884444-||
   ...           ...           ...

[Both Guitars]
e|-----||
B|-----||
G|-----||
D|-0~--||
A|-0~--||
D|-0~--||

Breakdown Part 1
[Guitar 1]
e|--------------------------------------------------------------------------||
B|--------------------------------------------------------------------------||
G|--------------------------------------------------------------------------||
D|------------------------------------------7h8p7----7----------------------||
A|----------------------0-7-8-10------------------10---10-8-7h8p7----7------||
D|-0000000000-0-7-8-10-----------0000000000-----------------------10---10-8-||
   ..........                    ..........

[Guitar 1]
e|--------------------------------------------------------------------------||
B|--------------------------------------------------------------------------||
G|--------------------------------------------------------------------------||
D|------------------------------------------7h8p7----7----------------------||
A|----------------------0-7-8-10------------------10---10-8-7h8p7----7------||
D|-0000000000-0-7-8-10-----------0000000000-----------------------10---10-8-||
   ..........                    ..........
[Guitar 2]
e|--------------------------------------------------------------------------||
B|--------------------------------------------------------------------------||
G|--------------------------------------------------------------------------||
D|-0~---------------------------------------7h8p7----7----------------------||
A|-0~---------------------------------------------10---10-8-7h8p7----7------||
D|-0~-------------------------------------------------------------10---10-8-||

[Both Guitars]
e|--------------------------------------------------------------------------||
B|--------------------------------------------------------------------------||
G|--------------------------------------------------------------------------||
D|------------------------------------------7h8p7----7----------------------||
A|----------------------0-7-8-10------------------10---10-8-7h8p7----7------||
D|-0000000000-0-7-8-10-----------0000000000-----------------------10---10-8-||
   ..........                    ..........

[Both Guitars]
e|--------------------------------------------------------------------------||
B|--------------------------------------------------------------------------||
G|--------------------------------------------------------------------------||
D|------------------------------------------7h8p7----7----------------------||
A|----------------------0-7-8-10------------------10---10-8-7h8p7----7------||
D|-0000000000-0-7-8-10-----------0000000000-----------------------10---10-8-||
   ..........                    ..........

[Guitar 1]
e|--------------------------------------------------------------------------||
B|--------------------------------------------------------------------------||
G|--------------------------------------------------------------------------||
D|----------------------0-7-8-10------------7h8p7----7----------------------||
A|------------0-7-8-10----------------------------10---10-8-7h8p7----7------||
D|-0000000000--------------------0000000000-----------------------10---10-8-||
   ..........                    ..........
[Guitar 2]
e|--------------------------------------------------------------------------||
B|--------------------------------------------------------------------------||
G|--------------------------------------------------------------------------||
D|------------------------------------------7h8p7----7----------------------||
A|----------------------0-7-8-10------------------10---10-8-7h8p7----7------||
D|-0000000000-0-7-8-10-----------0000000000-----------------------10---10-8-||
   ..........                    ..........

[Guitar 1]
e|--------------------------------------------------------------------------||
B|--------------------------------------------------------------------------||
G|--------------------------------------------------------------------------||
D|----------------------0-7-8-10------------7h8p7----7----------------------||
A|------------0-7-8-10----------------------------10---10-8-7h8p7----7------||
D|-0000000000--------------------0000000000-----------------------10---10-8-||
   ..........                    ..........
[Guitar 2]
e|--------------------------------------------------------------------------||
B|--------------------------------------------------------------------------||
G|--------------------------------------------------------------------------||
D|------------------------------------------7h8p7----7----------------------||
A|----------------------0-7-8-10------------------10---10-8-7h8p7----7------||
D|-0000000000-0-7-8-10-----------0000000000-----------------------10---10-8-||
   ..........                    ..........

Breakdown Part 2
[Both Guitars]
e|-----------------------------||
B|-----------------------------||
G|-----------------------------||
D|-----------------------------||
A|-0-0-0-0-------0-0-0-0-0-0-0-||
D|-0-0-0-0-------0-0-0-0-0-0-0-||
   . . . .       . . . . . . .

[Both Guitars]
e|-----------------------------||
B|-----------------------------||
G|-----------------------------||
D|-----------------------------||
A|-0-0-0-0-------0-0-0-0-0-0-0-||
D|-0-0-0-0-------0-0-0-0-0-0-0-||
   . . . .       . . . . . . .

[Both Guitars]
e|-----------------------------||
B|-----------------------------||
G|-----------------------------||
D|-----------------------------||
A|-0-0-0-0-------0-0-0-0-0-0-0-||
D|-0-0-0-0-------0-0-0-0-0-0-0-||
   . . . .       . . . . . . .

[Both Guitars]
e|-----------------------------||
B|-----------------------------||
G|-----------------------------||
D|-----------------------------||
A|-0-0-0-0-------0-0-0-0-0-0-0-||
D|-0-0-0-0-------0-0-0-0-0-0-0-||
   . . . .       . . . . . . .

[Guitar 1]
e|----------------------------------------||
B|----------------------------------------||
G|----------------------------------------||
D|------------------------------0-7-8-10*-||
A|-0-0-0-0-------0-0-0-0-0-0-0------------||
D|-0-0-0-0-------0-0-0-0-0-0-0------------||
   . . . .       . . . . . . .
[Guitar 2]
e|----------------------------------------||
B|----------------------------------------||
G|----------------------------------------||
D|----------------------------------------||
A|-0-0-0-0-------0-0-0-0-0-0-0--0-7-8-10*-||
D|-0-0-0-0-------0-0-0-0-0-0-0------------||
   . . . .       . . . . . . .

[Both Guitars]
e|--------------------------------------------------------------||
B|--------------------------------------------------------------||
G|--------------------------------------------------------------||
D|------------------------------7h8p7----7----------------------||
A|-0-0-0-0-------0-0-0-0-0-0-0--------10---10-8-7h8p7----7------||
D|-0-0-0-0-------0-0-0-0-0-0-0------------------------10---10-8-||
   . . . .       . . . . . . .        .  . .  .       .  . .  .

[Guitar 1]
e|----------------------------------------||
B|----------------------------------------||
G|----------------------------------------||
D|------------------------------0-7-8-10*-||
A|-0-0-0-0-------0-0-0-0-0-0-0------------||
D|-0-0-0-0-------0-0-0-0-0-0-0------------||
   . . . .       . . . . . . .
[Guitar 2]
e|----------------------------------------||
B|----------------------------------------||
G|----------------------------------------||
D|----------------------------------------||
A|-0-0-0-0-------0-0-0-0-0-0-0--0-7-8-10*-||
D|-0-0-0-0-------0-0-0-0-0-0-0------------||
   . . . .       . . . . . . .

[Both Guitars]
e|--------------------------------------------------------------||
B|--------------------------------------------------------------||
G|--------------------------------------------------------------||
D|------------------------------7h8p7----7----------------------||
A|-0-0-0-0-------0-0-0-0-0-0-0--------10---10-8-7h8p7----7------||
D|-0-0-0-0-------0-0-0-0-0-0-0------------------------10---10-8-||
   . . . .       . . . . . . .

[Guitar 1]
e|----------------------------------------||
B|----------------------------------------||
G|----------------------------------------||
D|------------------------------0-7-8-10*-||
A|-0-0-0-0~------0-0-0-0-0-0-0------------||
D|-0-0-0-0~------0-0-0-0-0-0-0------------||
   . . . .       . . . . . . .
[Guitar 2]
e|----------------------------------------||
B|----------------------------------------||
G|----------------------------------------||
D|----------------------------------------||
A|-0-0-0-0~------0-0-0-0-0-0-0--0-7-8-10*-||
D|-0-0-0-0~------0-0-0-0-0-0-0------------||
   . . . .       . . . . . . .

[Both Guitars]
e|--------------------------------------------------------------||
B|--------------------------------------------------------------||
G|--------------------------------------------------------------||
D|------------------------------7h8p7----7----------------------||
A|-0-0-0-0~------0-0-0-0-0-0-0--------10---10-8-7h8p7----7------||
D|-0-0-0-0~------0-0-0-0-0-0-0------------------------10---10-8-||
   . . . .       . . . . . . .

[Guitar 1]
e|----------------------------------------||
B|----------------------------------------||
G|----------------------------------------||
D|------------------------------0-7-8-10*-||
A|-0-0-0-0~------0-0-0-0-0-0-0------------||
D|-0-0-0-0~------0-0-0-0-0-0-0------------||
   . . . .       . . . . . . .
[Guitar 2]
e|----------------------------------------||
B|----------------------------------------||
G|----------------------------------------||
D|----------------------------------------||
A|-0-0-0-0~------0-0-0-0-0-0-0--0-7-8-10*-||
D|-0-0-0-0~------0-0-0-0-0-0-0------------||
   . . . .       . . . . . . .

End
[Both Guitars]
e|-----------------------------||
B|-----------------------------||
G|-----------------------------||
D|-----------------------------||
A|-0-0-0-0-------0-0-0-0-0-0-0-||
D|-0-0-0-0-------0-0-0-0-0-0-0-||
   . . .         . . . . . .





Comments


Popular Manntis tabs & chords
Approach Bass Tabs
New Breed Of Life Bass Tabs
Reflection's Of You Bass Tabs
Axe Of Redemtion Tabs
Breed New Life Tabs
New Breed Of Life Tabs
Reflections Of You Intro Tabs
Reflections Of You Intro 1 Tabs
Resist And Overcome Intro Tabs
Wihered Soul Tabs


Song lyrics



↑ Back to top | Tablatures and chords are parodies/interpretations of the original songs. You may use it for private study, scholarship, research or language learning purposes only
© 2014 AZChords.com Contact us | Privacy policy | DMCA | Add/correct tabs | Request tabs | Top 50 tabs