» » »

Manntis, Axe Of Redemption Bass tabs (ver.1)

Artists:  A B C D E F G H I J K L M N O P Q R S T U V W X Y Z # 

Axe Of Redemption Bass tabs (ver.1)

Manntis Tabs
 Rating:
4/5 (4 votes)
Axe Of Redemption lessons Tabs too difficult? Try these video lessons and learn fast
1
                Manntis - Axe of Redemption

tuning (low to high) - D A D G

Riff 1 x3
|-----------------------------------------------------------|
|-----------------------------------------------------------|
|----3h43h4----3h43h4----4h7p4----3h43h4----4-7-4-3-4-7-4-3-|
|-00--------00--------00-------00--------00-----------------|

|--------------------------------------------------------------|
|--------------------------------------------------------------|
|----3h43h4----3h43h4----4h7p4---------------------------------|
|-00--------00--------00-------4-4-4-4-4-4-4-4-7-7-7-7-7-7-7-7-|

Riff 2 x2
|----------------------------------------------------------------|
|----------------------------------------------------------------|
|-7-77---7-77---8-88---8-88---10-1010---10-1010-7----8----10-----|
|------XX-----XX-----XX-----XX--------XX---------0000-0000--0000-|

Riff 1 x3

hit open D and let ring for like 5 seconds

Riff 3 x6
|------------------------------------------------------------------------|
|-----------------------9------12-----------------12109-----151412-------|
|-----------------10p912-10p912------------------------12109------151412-|
|-000-111-000-111-----------------000-111-000-111------------------------|

Riff 4 x2
|-----------------------------------------|
|-----------------------------------------|
|-----------------------------------------|
|-0000----0-0-0000----0000----0-0-0000----|

Riff 5 x3
|------------------------15-------------------------------------|
|----------------------------------------12109-----151412-------|
|------------------10p912---------------------12109------151412-|
|-0000----0-0-0000-----------0000----0-0------------------------|

End with this
|------------------------15----------------------|
|------------------------------------------------|
|------------------10p912------------------------|
|-0000----0-0-0000-----------00-0-0---0-0-00-0-0-|
            
Submit corrections

comments powered by Disqus
↑ Back to top | Manntis Bass for Axe Of Redemption. Lyrics for acoustic guitar and electric guitar. 1 Tablatures and chords are parodies/interpretations of the original songs. You may use it for private study, scholarship, research or language learning purposes only