» » »

Mando Diao, Ochrasy Chords (ver.2)

Artists:  A B C D E F G H I J K L M N O P Q R S T U V W X Y Z # 

Ochrasy Chords (ver.2)

Mando Diao Tabs
 Rating:
4/5 (4 votes)
Ochrasy lessons Tabs too difficult? Try these video lessons and learn fast
                

Nice song! However, listen to it and try to figure out the rhythm.
I tried to show you the picking but the details you have to figure out by yourself. 
Have fun!

Riff 1:

e|------------------------------------------------------|
B|-----1-----1-----1-----1------1-----1-----1-----1-----|
G|-----0-----0-----0-----0------3-----3-----3-----3-----|
D|------------------------------------------------------|
A|---3----33----33----33------3----33----33----33-------|
E|------------------------------------------------------|

e|------------------------------------------------------|
B|-----1-----1-----1-----1------1-----1-----1-----1-----|
G|-----2-----2-----2-----2------0-----0-----0-----0-----|
D|------------------------------------------------------|
A|---3----33----33----33------3----33----33----33-------|
E|------------------------------------------------------|

Riff 2:

e|------------------------------------------------------|
B|-----3-----3-----3-----3------0-----0-----0-----0-----|
G|-----4-----4-----4-----4------1-----1-----1-----1-----|
D|------------------------------------------------------|
A|---5----55----55----55------2----22----22----22-------|
E|------------------------------------------------------|

e|------------------------------------------------------|
B|-----1-----1-----1-----1------1-----1-----1-----1-----|
G|-----2-----2-----2-----2------2-----2-----2-----2-----|
D|------------------------------------------------------|
A|---0----00----00----00------0----00----00----00-------|
E|------------------------------------------------------|

Riff 3:

e|-----2-----2-----2-----2------2-----2-----2-----2-----|
B|-----3-----3-----3-----3------3-----3-----3-----3-----|
G|-----2-----2-----2-----2------2-----2-----2-----2-----|
D|---0----00----00----00------0----00----00----00-------|
A|------------------------------------------------------|
E|------------------------------------------------------|

e|------------------------------------------------------|
B|-----3-----3-----3-----3------3-----3-----3-----3-----|
G|-----4-----4-----4-----4------4-----4-----4-----4-----|
D|------------------------------------------------------|
A|---5----55----55----55------5----55----55----55-------|
E|------------------------------------------------------|
            
Submit corrections

comments powered by Disqus
↑ Back to top | Mando Diao Chords for Ochrasy. Lyrics for acoustic guitar and electric guitar. Tablatures and chords are parodies/interpretations of the original songs. You may use it for private study, scholarship, research or language learning purposes only