» » »

Ochrasy Tabs (ver.2)

Artists:  A B C D E F G H I J K L M N O P Q R S T U V W X Y Z # 

Ochrasy Tabs (ver.2)

Mando Diao
Rating:
0/5 (0 votes)

Hard to play? Try these video lessons and learn fast.
                
Comment:

Hey folks!
The stanza part was not realy difficult to figure out and there
were already several tabs of it.
I'm not sure if the chorus is absolutly right, but anyway, it much better then just playing the chords! 
Hope you'll enjoy playing it as much as I did while figuring out!
cya!

Stanza: (2 times)
|------------------------|------------------------|
|1---1-1---1-1---1-1---1-|1---1-1---1-1---1-1---1-|
|--0-----0-----0-----0---|--3-----3-----3-----3---|
|------------------------|------------------------|
|3-----3-----3-----3-----|3-----3-----3-----3-----|
|------------------------|------------------------|
                           1st time
|------------------------| |------------------------|
|1---1-1---1-1---1-1---1-| |1---1-1---1-1---1-1---1-|
|--2-----2-----2-----2---| |--0-----0-----0-----0---|
|------------------------| |------------------------|
|3-----3-----3-----3-----| |3-----3-----3-----3-----|
|------------------------| |------------------------|
                           2nd time
                         | |------------------------|
                         | |1---1-1---1-1---1-------|
                         | |--0-----0-----0---------|
                         | |------------------------|
                         | |3-----3-----3-----------|
                         | |------------------0-1-2-|


Chorus:
|------------3-----------|------------0-----------|
|------3-------3---------|------0-------0---------|
|----4---4-------4-------|----1---1-------1-----1-|
|--5-------5-------------|--2-------2---------2---|
|------------------------|------------------2-----|
|3-----------------3-2-1-|0-----------------------|

|------------------------|------------------------| 
|1---1-1---1-1---1-1---1-|1---1-1---1-1---1-1---1-| 
|--2-----2-----2-----2---|--2-----2-----2-----2---| 
|------------------------|------------------------| 
|0-----0-----0-----0-----|0-----0-----0-----0-----| 
|------------------------|------------------------|

|2---2-2---2-2---2-2---2-|2---2-2---2-2---2-2---2-|
|--1-----1-----1-----1---|--1-----1-----1-----1---|
|------------------------|------------------------|
|0-----0-----0-----0-----|0-----0-----0-----0-----|
|------------------------|------------------------|
|------------------------|------------------------|

|1---1-1---1-1---1-1---1-|1---1-0---0-------------|
|--1-----1-----1-----1---|--1-----1---3---3-1---1-|
|------------------------|--------------0-----0---|
|0-----0-----0-----0-----|0-----0-----0-----0-----|
|------------------------|------------------------|
|------------------------|------------------------|

Stanza...
            
Hard to play? Try these video lessons and learn fast. | Correct




comments powered by Disqus
↑ Back to top | Tablatures and chords are parodies/interpretations of the original songs. You may use it for private study, scholarship, research or language learning purposes only