» » »

Mando Diao, India Love Tabs (ver.2)

Artists:  A B C D E F G H I J K L M N O P Q R S T U V W X Y Z # 

India Love Tabs (ver.2)

Mando Diao Tabs
Rating:
0/5 (0 votes)
India Love lessons Tabs too difficult? Try these video lessons and learn fast
                (Intro)
-----------------------------------------------------------------------
                     India love - Mando Diao
-----------------------------------------------------------------------

Guitar 1:
e|------------------------------------|
B|------------------------------------|
G|-7-7-7-7-7-7-7-7--9/11--9/11--9-----|   play this 2x
D|-7-7-7-7-7-7-7-7--9/11--9/11--9-----|
A|-5-5-5-5-5-5-5-5--7/9---7/9---7-----|
E|------------------------------------|

e|------------------------------------|
B|------------------------------------|
G|-7-7-7-7-7-7-7-7--9/11--9\7-9-------|
D|-7-7-7-7-7-7-7-7--9/11--9\7-9-------|
A|-5-5-5-5-5-5-5-5--7/9---7\5-7-------|
E|------------------------------------|

e|------------------------------------|
B|------------------------------------|
G|-7-7-7-7-7-7-7-7--9/11--9/11--9-----|
D|-7-7-7-7-7-7-7-7--9/11--9/11--9-----|
A|-5-5-5-5-5-5-5-5--7/9---7/9---7-----|
E|------------------------------------|

Guitar 2:
|plays something like this(it is played very quietly), so it's a little bit hard to hear 
the 2. guitar exactely plays.
e|-------------------------------------------------|
B|-15-15-15-15-15-15-15-15---14-14---14-14--14-----|
G|-------------------------------------------------|
D|-------------------------------------------------|
A|-------------------------------------------------|
E|-------------------------------------------------|

| /  slide up
| \  slide down
            

comments powered by Disqus
↑ Back to top | Mando Diao Tabs for India Love. Lyrics for acoustic guitar and electric guitar. Tablatures and chords are parodies/interpretations of the original songs. You may use it for private study, scholarship, research or language learning purposes only