>
 >
India Love

India Love Guitar Tabs

Mando Diao - India Love chords, tabs, tablatures, lyrics

Guitar lessons | Add/correct | Request | Top 50 tabs Artists:  A B C D E F G H I J K L M N O P Q R S T U V W X Y Z 0-9

India Love Guitar Tabs – Mando Diao

CD, Sheet music, Poster

Do you like India Love? Share with your friends now
ChordsTabsUkulele
-----------------------------------------------------------------------
-----------------------------------------------------------------------
Tuning: standard
Guitar 1:
e|------------------------------------|
B|------------------------------------|
G|-7-7-7-7-7-7-7-7--9/11--9/11--9-----|   play this 2x
D|-7-7-7-7-7-7-7-7--9/11--9/11--9-----|
A|-5-5-5-5-5-5-5-5--7/9---7/9---7-----|
E|------------------------------------|

e|------------------------------------|
B|------------------------------------|
G|-7-7-7-7-7-7-7-7--9/11--9\7-9-------|
D|-7-7-7-7-7-7-7-7--9/11--9\7-9-------|
A|-5-5-5-5-5-5-5-5--7/9---7\5-7-------|
E|------------------------------------|

e|------------------------------------|
B|------------------------------------|
G|-7-7-7-7-7-7-7-7--9/11--9/11--9-----|
D|-7-7-7-7-7-7-7-7--9/11--9/11--9-----|
A|-5-5-5-5-5-5-5-5--7/9---7/9---7-----|
E|------------------------------------|

Guitar 2:
|played quietly
e|-------------------------------------------------|
B|-15-15-15-15-15-15-15-15---14-14---14-14--14-----|  4x
G|-------------------------------------------------|
D|-------------------------------------------------|
A|-------------------------------------------------|
E|-------------------------------------------------|

Verse:

Guitar 1:
e|------------------------------------|
B|------------------------------------|
G|-7-7-7-7-7-7-7-7--9/11--9/11--9-----|   play this 2x
D|-7-7-7-7-7-7-7-7--9/11--9/11--9-----|
A|-5-5-5-5-5-5-5-5--7/9---7/9---7-----|
E|------------------------------------|

e|------------------------------------|
B|------------------------------------|
G|-7-7-7-7-7-7-7-7--9/11--9\7-9-------|
D|-7-7-7-7-7-7-7-7--9/11--9\7-9-------|
A|-5-5-5-5-5-5-5-5--7/9---7\5-7-------|
E|------------------------------------|

e|------------------------------------|
B|------------------------------------|
G|-7-7-7-7-7-7-7-7--9/11--9/11--9-----|
D|-7-7-7-7-7-7-7-7--9/11--9/11--9-----|
A|-5-5-5-5-5-5-5-5--7/9---7/9---7-----|
E|------------------------------------|

e|------------------------------------|
B|------------------------------------|
G|-7-7-7-7-7-7-7-7--9/11--9/11--9-----|   play this 2x
D|-7-7-7-7-7-7-7-7--9/11--9/11--9-----|
A|-5-5-5-5-5-5-5-5--7/9---7/9---7-----|
E|------------------------------------|

e|------------------------------------|
B|------------------------------------|
G|-7-7-7-7-7-7-7-7--9/11--9\7-9-------|
D|-7-7-7-7-7-7-7-7--9/11--9\7-9-------|
A|-5-5-5-5-5-5-5-5--7/9---7\5-7-------|
E|------------------------------------|

e|--------------------|
B|--------------------|
G|-7-7-7-7-7-7-7-7----|  2x
D|-7-7-7-7-7-7-7-7----|
A|-5-5-5-5-5-5-5-5----|
E|--------------------|

Guitar 2:
|played quietly
e|-------------------------------------------------|
B|-15-15-15-15-15-15-15-15---14-14---14-14--14-----|  7x
G|-------------------------------------------------|
D|-------------------------------------------------|
A|-------------------------------------------------|
E|-------------------------------------------------|

e|--------------------------------------------------|
B|-15-15-15-15-15-15-15-15-15-15-15-15-15-15-15-15--| 1x
G|--------------------------------------------------|
D|--------------------------------------------------|
A|--------------------------------------------------|
E|--------------------------------------------------|


Bridge: Guitar 1:
e|----------------------------------------|
B|----------------------------------------|
G|-4-4-4-4-4-4-4-4------------------------|  3x
D|-4-4-4-4-4-4-4-4-4-4-4-4-4-4-4-4--------|
A|-2-2-2-2-2-2-2-2-4-4-4-2-4-2-4-4--------|
E|-----------------2-2-2-2-2-2-2-2--------|


e|-----|
B|-----|
G|-----|
D|-5---| 16x
A|-5---|
E|-3---|

e|-----|
B|-----|
G|-----|
D|--7--| 16x
A|--7--|
E|--5--|

e|-------------------------------|
B|-------------------------------|
G|-7---7---7---6---6---6---------| 3x
D|---9---9---9---8---8---8-------|
A|-------------------------------|
E|-------------------------------|

e|-------------------------------------------------------------------------|
B|-------------------------------------------------------------------------|
G|7---7---7---7---7---7----9--9--9--9--9--9--9--9--9--9--9--9--9--9--9--9--|
D|--9---9---9---9---9---9--11-11-11-11-11-11-11-11-11-11-11-11-11-11-11-11-|
A|-------------------------------------------------------------------------|
E|-------------------------------------------------------------------------|

Chorus:
Guitar 1:

e|--------------------------------|
B|--------------------------------|
G|-7------4-----------------------|
D|-7--8x--4--8x--5------7---------|  2x
A|-5------2------5--8x--7--8x-----|
E|---------------3------5---------|

e|--------------|
B|--------------|
G|--------------|
D|-5------------|
A|-5--16x-------|
E|-3------------|

e|----------------------|
B|----------------------|
G|----------------------|
D|--7-7-7-7-7-7-x-x-----|  3x
A|--7-7-7-7-7-7-x-x-----|
E|--5-5-5-5-5-5-x-x-----|

e|-------------------------|
B|-------------------------|
G|-------------------------|
D|--x--7-7-7-7-7-7-7-------| 1x
A|--x--7-7-7-7-7-7-7-------|
E|--x--5-5-5-5-5-5-5-------|

Guitar 2:
  It's hard to listen to the 2. guitar because it's played in the          background, 
I tabbed sth. that sounds good.
e|----------------------------------------------------|
B|--7-8-7------7-8-7--------7-8-7------7-8-7----------|
G|-7---------7---------7-------------7-------9-7-9----|
D|---------9---------9---9---------9------------------|
A|----------------------------------------------------|
E|----------------------------------------------------|

e|-----------------------------------------------10-12--|
B|---7-8-7------7-8-7--------7-8-7---7---8-10-11--------|
G|--7--------7----------7--------------9----------------|
D|---------9----------9---9--------9--------------------|
A|------------------------------------------------------|
E|------------------------------------------------------|


Intro: guitar 1 + 2: the same as the Introriffs above

Verse 2: Guitar 1: the same as the verseriffs above
         Guitar 2: the same as the verseriffs above

 Guitar 3: (I know the don't have 3 guitars, but there's a third guitar
            After guitar 2 played the verseriff 3x

e|-----------------------------------------|
B|-----------------------------------------|
G|-11-11-11\-9-9-9--9\7--7-7-7/9--9--------|  4x
D|-----------------------------------------|
A|-----------------------------------------|
E|-----------------------------------------|

e|-----------------------------------------|
B|-----------------------------------------|
G|-11-11-11\-9-9-9--9\7--7-7-7\6--6\4--4---|  1x
D|-----------------------------------------|
A|-----------------------------------------|
E|-----------------------------------------|

Bridge: Guitar 1 + 2: the same Bridgeriffs as above
Chorus: Guitar 1 : The same Chorusriffs as above

Guitar 2:
  It's hard to listen to the 2. guitar because it's played in the          background, 
I tabbed sth. that sounds good, but it isn't excately the same how it is played in the 
Sorry!
e|----------------------------------------------------|
B|--7-8-7------7-8-7--------7-8-7------7-8-7----------|
G|-7---------7---------7-------------7-------9-7-9----|  3x
D|---------9---------9---9---------9------------------|
A|----------------------------------------------------|
E|----------------------------------------------------|


e|-----------------------------------------------10-12--|
B|---7-8-7------7-8-7--------7-8-7---7---8-10-11--------|
G|--7--------7----------7--------------9----------------|
D|---------9----------9---9--------9--------------------|
A|------------------------------------------------------|
E|------------------------------------------------------|
  Then Guitar 1 plays the end of the Chorusriffs as above.

Outro:

e|-------------------|
B|-------------------|
G|------------7------|
D|-7----------7--1x--|
A|-7--32x-----5------|
E|-5-----------------|

 !!!Thanks for voting!!!
                          GuitarSpongeBob
| /  slide up
| \  slide down
| x  Mute note





Comments


Popular Mando Diao tabs & chords
Down In The Past 1 Bass Tabs
Chet Baker Chords
Sheepdog Chords
Dalarna Intro Tabs
How We Walk Tabs
Ochrasy 1 Tabs
Gold Ukulele
Josephine Ukulele
Morning Paper Dirt Ukulele
Suffer Pain And Pity Ukulele


Song lyrics



↑ Back to top | Tablatures and chords are parodies/interpretations of the original songs. You may use it for private study, scholarship, research or language learning purposes only
© 2014 AZChords.com Contact us | Privacy policy | DMCA | Add/correct tabs | Request tabs | Top 50 tabs