>
 >
Down In The Past 1

Down In The Past 1 Guitar Tabs

Mando Diao - Down In The Past 1 chords, tabs, tablatures, lyrics

Guitar lessons | Add/correct | Request | Top 50 tabs Artists:  A B C D E F G H I J K L M N O P Q R S T U V W X Y Z 0-9

Down In The Past 1 Guitar Tabs – Mando Diao

CD, Sheet music, Poster

Do you like Down In The Past 1? Share with your friends now
Bass TabsBass Tabs v2ChordsChords v2Chords v3TabsTabs v2Tabs v3Ukulele
MANDO DIAO - DOWN IN THE PAST

INTRO:

gtr. 1:

e|2----------------------------------------------------------------|
B|3----------------------------------------------------------------|
G|4----------------------------------------------------------------|
D|4----------------------------------------------------------------|
A|2----------------------------------------------------------------|
E|-----------------------------------------------------------------|

gtr. 2:
e|----------------------------------------------------------------|
B|----------------------------------------------------------------|
G|------------------------------------------------------------7---|
D|9---7-9---7-9---7-9---7-9---7---9---7-9---7-9---7-9---7-9-------|
A|----------------------------------------------------------------|
E|----------------------------------------------------------------|

gtr. 1:
e|7---------------------------------------------------------------|
B|8-------------------------------9-------------------------------|
G|7-------------------------------9-------------------------------|
D|9-------------------------------7-------------------------------|
A|7-------------------------------9-------------------------------|
E|----------------------------------------------------------------|

gtr. 2:
e|----------------------------------------------------------------|
B|----------------------------------------------------------------|
G|------------------------------------------------------7-9B--7---|
D|9---7-9---7-9---7-9---7-9---7---9---7-9---7-9---7-9-------------|
A|----------------------------------------------------------------|
E|----------------------------------------------------------------|

gtr. 1:                                            #   #       #
e|2---x-2---2-2---------------------------------------------------|
B|3---x-3---3-3---8---x-8---8-8-----------------------------------|
G|4---x-4---4-4---9---x-9---9-9---7---x-7---7-7---9---9---9b--9---|
D|4---x-4---4-4---9---x-9---9-9---7---x-7---7-7---11--11--11b-11--|
A|2---x-2---2-2---7---x-7---7-7---5---x-5---5-5---9---9---9b--9---|
E|--------------------------------5---x-5---5-5-------------------|

gtr. 2:
e|----------------------------------------------------------------|
B|----------------------------------------------------------------|
G|----------------------------7-------------------------7-9B--7---|
D|9---7-9---7-9---7-9---7-9-------9---7-9---7-9---7-9-------------|
A|----------------------------------------------------------------|
E|----------------------------------------------------------------|
repeat

VERSE:

gtr. 1 strums x24432 and lets ring

gtr. 2

D |9--------------------------------\-------------------------------|


 motor baby and I'm gonna see you  through
e|--------------------------------2-------------------------------|
B|0-----------------------0-------3-------------------------------|
G|1-----------------------1-------4-------------------------------|
D|2-----------------------2-------4-------------------------------|
A|2-----------------------2-------2-------------------------------|
E|0-----------------------0---------------------------------------|

 think I  wanna  be  around  with   you
e|2---------------------------------------------------------------|
B|3---------------------------------------------------------------|
G|4---------------------------------------------------------------|
D|4---------------------------------------------------------------|
A|2---------------------------------------------------------------|
E|----------------------------------------------------------------|

(It doesn't matter...)
e|--------------------------------2-------------------------------|
B|0-----------------------0-------3-------------------------------|
G|1-----------------------1-------4-------------------------------|
D|2-----------------------2-------4-------------------------------|
A|2-----------------------2-------2-------------------------------|
E|0-----------------------0---------------------------------------|

PRE-CHORUS:

gtr. 1:
e|2---------------------------------------------------------------|
B|3---------------------------------------------------------------|
G|2-------------------------------3-------------------------------|
D|0-------------------------------4-------------------------------|
A|--------------------------------4-------------------------------|
E|--------------------------------2-------------------------------|

gtr. 2:
e|----------------------------------------------------------------|
B|----------------------------------------------------------------|
G|7---7---7---7---7---------------11------------------------\-----|
D|7---7---7---7---7---------------11------------------------\-----|
A|5---5---5---5---5---------------9-------------------------\-----|
E|----------------------------------------------------------------|

gtr. 1:
e|2---2-2---2-2---2-2---2-2-------2---2-2---2-2---2-2---2-2-------|
B|3---3-3---3-3---3-3---3-3-------3---3-3---3-3---3-3---3-3-------|
G|4---4-4---4-4---4-4---4-4-------4---4-4---4-4---4-4---4-4-------|
D|4---4-4---4-4---4-4---4-4-------4---4-4---4-4---4-4---4-4-------|
A|2---2-2---2-2---2-2---2-2-------2---2-2---2-2---2-2---2-2-------|
E|----------------------------------------------------------------|

gtr. 2:
e|----------------------------------------------------------------|
B|------------------------------------------------------------3---|
G|4---2-4---2-4---2-4---2-4---2---4---2-4---2-4---2-4---2-4-------|
D|----------------------------------------------------------------|
A|----------------------------------------------------------------|
E|----------------------------------------------------------------|

gtr. 1:
e|----------------------------------------------------------------|
B|3---------------------------------------------------------------|
G|2-------------------------------1-----------------------1-------|
D|0-------------------------------2-----------------------2-------|
A|0-------------------------------2-----------------------2-------|
E|--------------------------------0-----------------------0-------|

gtr. 2:

e|----------------------------------------------------------------|
B|3-------------------------------5-------------------------------|
G|--------------------------------4-------------------------------|
D|--------------------------------2-------------------------------|
A|----------------------------------------------------------------|
E|----------------------------------------------------------------|


gtr. 1:

e|-----------------------------------------------------------------|
B|-----------------------------------------------------------------|
G|3---3---3---3---3---3---3---3---3---3---3---3---3---3---3---x---|
D|4---4---4---4---4---4---4---4---4---4---4---4---4---4---4---x---|
A|4---4---4---4---4---4---4---4---4---4---4---4---4---4---4---x---|
E|2---2---2---2---2---2---2---2---2---2---2---2---2---2---2---x---|

gtr. 2:

e|----------------------------------------------------------------|
B|2---2-----------2---2-----------2---2-------2---2---2-----------|
G|----------------------------------------------------------------|
D|--------4---4-----------4---4-----------4---------------4---x---|
A|----------------------------------------------------------------|
E|----------------------------------------------------------------|

CHORUS:
                  #   #   #   #                    #   #   #   #
e|2-----2-----2---------------------------------------------------|
B|3-----3-----3---8---8---8---8---3-----3-----3-------------------|
G|4-----4-----4---9---9---9---9---2-----2-----2---3---3---3---3---|
D|4-----4-----4---9---9---9---9---0-----0-----0---4---4---4---4---|
A|2-----2-----2---7---7---7---7---0-----0-----0---4---4---4---4---|
E|------------------------------------------------2---2---2---2---|

e|7---------------------------------------------------------------|
B|------7---------8---------------7---------------------------7---|
G|------------7-------------------------7-----------9---9---------|
D|--------------------------------------------7---8---8---8-------|
A|----------------------------------------------------------------|
E|----------------------------------------------------------------|

^^repeat

  #               #                #               #
e|----------------------------------------------------------------|
B|--------------------------------7-----7-------------------------|
G|4-----4---------6-----6---------7-----7---------3-----3---------|
D|5-----5---------7-----7---------7-----7---------4-----4---------|
A|5-----5---------7-----7---------5-----5---------4-----4---------|
E|3-----3---------5-----5-------------------------2-----2---------|


e|----------------9---------------10--------------9---------------|
B|7---------------------10--------------10--------------11--------|
G|------8---------------------------------------------------------|
D|----------------------------------------------------------------|
A|----------------------------------------------------------------|
E|----------------------------------------------------------------|

e|--------------------------------|
B|--------------------------------|
G|-4---4---4---4---6---6---6---6--|
D|-5---5---5---5---7---7---7---7--|
A|-5---5---5---5---7---7---7---7--|
E|-3---3---3---3---5---5---5---5--|

e|(7)-(7)-(7)-(7)-(9)-(9)-(9)-----|
B|---------8-------10-------------|
G|--------------------------------| notes in brackets
D|--------------------------------| played in 2nd and 3rd chorus
A|--------------------------------|
E|--------------------------------|

POST-CHORUS:

gtr. 1: strums B minor x-2-4-4-3-2 in this rhythm:

  |   | |   | |   | |   | |        |   | |   | |   | |   | |

gtr. 2:
e|----------------------------------------------------------------|
B|----------------------------------------------------------------|
G|----------------------------7-------------------------7-9B--7---|
D|9---7-9---7-9---7-9---7-9-------9---7-9---7-9---7-9-------------|
A|----------------------------------------------------------------|
E|----------------------------------------------------------------|

- VERSE
- PRE-CHORUS
- CHORUS

SOLO:

guitar 1:

e  |2---x-2---2-2-----------------------------------2---x-2---2-2---|
B  |3---x-3---3-3---8---x-8---8-8-------------------2---x-2---2-2---|
G  |4---x-4---4-4---9---x-9---9-9---7---x-7---7-7---3---x-3---3-3---|
D  |4---x-4---4-4---9---x-9---9-9---7---x-7---7-7---4---x-4---4-4---|  x2
A  |2---x-2---2-2---7---x-7---7-7---5---x-5---5-5---4---x-4---4-4---|
E  |--------------------------------5---x-5---5-5---2---x-2---2-2---|

guitar 2 (with wah-wah):

e -|----------------------------------------------------------------|
B -|--------------7-------------------------------7---7-------------|
G -|--------7-9---9B--------7-9-----7-------7-9---------9---7-------|
D 4/9---9---------------9---------------9-----------------------7---|
A -|----------------------------------------------------------------|
E -|----------------------------------------------------------------|

e|---------------------------------------------------------------|
B|---------------------------------------------7---7-------------|
G|--------7-9---9B--------7-9----7-------7-9---------9---7-------|
D|9---9---------------9--------------9-------9---------------7---|
A|---------------------------------------------------------------|
E|---------------------------------------------------------------|

e|----------------------------------------------------------------|
B|------------------------------------------------7---------------|
G|----------------7-----7-----7---9---7-9---7-9---9B--7-----------|
D|9---7-9---7-9-------9-----9-----------------------------9---7---|
A|----------------------------------------------------------------|
E|----------------------------------------------------------------|

e|--------------------------------------------------------7/1010--|
B|------------------------------------------------7---10----------|
G|----------------7-----7-----7---9---7-9---7-9-------------------|
D|9---7-9---7-9-------9-----9-------------------------------------|
A|----------------------------------------------------------------|
E|----------------------------------------------------------------|

end on:

gtr. 1 strums x24432 once

gtr. 2:   gradually bend the note a half-step
e|7-------------------------------bb(8)----------------------------|
B|-----------------------------------------------------------------|
G|-----------------------------------------------------------------|
D|-----------------------------------------------------------------|
A|-----------------------------------------------------------------|
E|-----------------------------------------------------------------|

pick scratch sound for 2 measures

then guitar 1 along with bass

gtr. 1 (palm-muted):
e|-----------------------------------------------------------------|
B|-----------------------------------------------------------------|
G|-----------------------------------------------------------------|
D|----------------------------0-------------------------0-2-2-0-0--|
A|2---x-2---0-2---0-2---0-2-------2---x-2---0-2---0-2--------------|
E|-----------------------------------------------------------------|
  .   . .   . .   . .   . .   .   .   . .   . .   . .   . . . . .

gtr. 2:
e|7---------------------------------------------------------------|
B|------7---------8---------------7---------------------------7---|
G|--------------------------------------7---------------9---------|
D|--------------------------------------------7---8---------------|
A|----------------------------------------------------------------|
E|----------------------------------------------------------------|

Last measure before chorus:

gtr. 1:
e|----------------------------------------------------------------|
B|--------------------------------3---3---3---3-------------------|
G|--------------------------------2---2---2---2---3---3---3---3---|
D|--------------------------------0---0---0---0---4---4---4---4---|
A|--------------------------------0---0---0---0---4---4---4---4---|
E|------------------------------------------------2---2---2---2---|

gtr. 2:
e|7---------------------------------------------------------------|
B|------7---------8---------------7---------------------------7---|
G|--------------------------------------7-----------9---9---------|
D|--------------------------------------------7---8---8-----------|
A|----------------------------------------------------------------|
E|----------------------------------------------------------------|

- CHORUS

OUTRO:

gtr. 1:
e|----------------------------------------------------------------|
B|----------------------------------------------------------------|
G|----------------------------7-------------------------7-9B--7---|
D|9---7-9---7-9---7-9---7-9-------9---7-9---7-9---7-9-------------|
A|----------------------------------------------------------------|
E|----------------------------------------------------------------|

gtr. 2:
e|7---------------7-----------------------------------------------|
B|------7---------------8---------7---------------------------7---|
G|------------7---------------9---------7-----------9---9---------|
D|--------------------------------------------7---8---8-----------|
A|----------------------------------------------------------------|
E|----------------------------------------------------------------|

gtr. 3:                                            #   #       #
e|2---x-2---2-2---------------------------------------------------|
B|3---x-3---3-3---8---x-8---8-8-----------------------------------|
G|4---x-4---4-4---9---x-9---9-9---7---x-7---7-7---9---9---9b--9---|
D|4---x-4---4-4---9---x-9---9-9---7---x-7---7-7---11--11--11b-11--|
A|2---x-2---2-2---7---x-7---7-7---5---x-5---5-5---9---9---9---9---|
E|--------------------------------5---x-5---5-5-------------------|

^^repeat

"Now come on!!!":

gtr. 1:
e|---------------------------------------------------------------|
B|---------------------------------------------------------------|
G|---------------------------------------------------7-7-9B9B-7-7|
D|9-7-9-7-7-9-7-7-9-7-9-7-7-9-7-7-9-7-9-7-7-9-7-7-7-7------------|
A|---------------------------------------------------------------|
E|---------------------------------------------------------------|

gtr. 2:
e|----7-----------------------------------------------------------|
B|--------7-----------8-----------7-------------------------------|
G|------------7-----------9-----------7---------------7---9B--7---|
D|----------------------------9-----------7---8---7---------------|
A|----------------------------------------------------------------|
E|----------------------------------------------------------------|

both guitars end on D-9 note

=====================================================
x ..... mute note
# ..... don't let chord written below ring
b ..... quarter step bend
bb..... half step bend
B ..... whole step bend
~ ..... vibrato





Comments


Popular Mando Diao tabs & chords
Blue Lining, White Trenchcoat Bass Tabs
Josephine Chords
Searching For Owls Chords
Added Family Solos Tabs
Mr Moon 2 Tabs
Ringing Bells Tabs
Carbon Place Ukulele
Go Out Tonight Ukulele
Nothing Without You Ukulele
Searching For Owls Ukulele


Song lyrics



↑ Back to top | Tablatures and chords are parodies/interpretations of the original songs. You may use it for private study, scholarship, research or language learning purposes only
© 2014 AZChords.com Contact us | Privacy policy | DMCA | Add/correct tabs | Request tabs | Top 50 tabs