>
 >
Down In The Past 2

Down In The Past 2 Guitar Tabs

Mando Diao - Down In The Past 2 chords, tabs, tablatures, lyrics

Guitar lessons | Add/correct | Request | Top 50 tabs Artists:  A B C D E F G H I J K L M N O P Q R S T U V W X Y Z 0-9

Down In The Past 2 Guitar Tabs – Mando Diao

CD, Sheet music, Poster

Do you like Down In The Past 2? Share with your friends now
Bass TabsBass Tabs v2ChordsChords v2Chords v3TabsTabs v2Tabs v3Ukulele
-------------------------------------------------------------------------------
                             Down in the past - Mando Diao
-------------------------------------------------------------------------------


Tuning: standard. but you can also play it in drop B if youre smart enough to transpose it.

CREDITS- thanx to FRAME_85 for suggestions for the solo


intro pt.I
0:00                                              2x
e|----------------------------------------------------|
B|-------------------------------------------------3--|
G|---4-2-4--2-4--2-4--2-4-2---4-2-4--2-4--2-4--2-4----|
D|----------------------------------------------------|
A|----------------------------------------------------|
E|----------------------------------------------------|
 |
e|---2------------------------------------------------|
B|---3------------------------------------------------|
G|---4------------------------------------------------|
D|---4------------------------------------------------|
A|---2------------------------------------------------|
E|----------------------------------------------------|

0:08   intro part 2                                    4x
e|-----------------------------------------------------|
B|-----------------------3---------------------3-5b-3--|
G|--4-2-4--2-4--2-4--2-4------4--2-4--2-4--2-4---------|
D|-----------------------------------------------------|
A|-----------------------------------------------------|
E|-----------------------------------------------------|
 |
e|--2-----------0-------------2-----------2----------------------------------------|
B|--3-----------0-------------3-----------2----------------------------------------|
G|--4-----------0-------------2-----------3----------------------------------------|
D|--4-----------2-------------0-----------4----------------------------------------|
A|--2-----------2-------------0-----------4----------------------------------------|
E|--------------0-------------------------2----------------------------------------|
    b           e             D           F#
0:27
     b
Well I don't wanna hang around with you
             e                                b
I've got my motor baby and I'm gonna see you through
       b
You think I wanna be alone with you
            e                                 b
It doesn't matter baby cause you're overreacted too
D                           F#                 b  *2nd guit. plays intro pt.I
But since you're down there, where will I just be
D                     e                        F#
I'm getting fine girl, dressing up for stormy weather

Refrain:
              b          e              D          F#
So touch me down in the past where my mother will last
          b             e         D          F#
And it's true that I'm in for a punch and a blast
      G 1)         A            D            F#
Yeah down in the past where my mother will last
     G              A             b
And she will make sure that you remember

1)
second guitar is clean and the chord usually once, in this line its different
e|-------7---5---0---9----5----0---10----------9--------|
B|------------------------------------10---------11-----|
G|----------------------------------------9-------------|
D|------------------------------------------------------|
A|------------------------------------------------------|
E|------------------------------------------------------|
   Yeah down in the past where my mother will last


Intro part II  twice

b
Well I don't wanna slide away with you
           e                          b
I've got ten little soldiers pointing at you
b
Honey you just left me for a new one
            e                                   b
It doesn't matter baby cause your hair is ugly too
D                              F#              b  intro part I
But since you're down there, where will I just be
D                         e                     F#
 I'm getting fine girl, dressing up for stormy weather


Refrain

Solo (with Wahwah)
2:19                                                  2x
e|---------------------------------------------  x2
B|---- 3-5-7-----3-5-3-- 3-5--7-7-5-3-5--------
G|--4-4-------4---------4----------------------
D|---------------------------------------------
A|---------------------------------------------
E|---------------------------------------------
     b     e         D        F#

2:29
e|------------------------------5-2--------------|
B|--------------3--3--3--5--3-5-----3------------|
G|-4--2-4--2-4----4--4----------------4-3--------|
D|-----------------------------------------------|
A|-----------------------------------------------|
E|-----------------------------------------------|
   b            e         D           F#

e|---------------------------------------5--7---10------|
B|--------------3--3--3--5--3-5---3-5--7------------12--|
G|-4--2-4--2-4----4--4----------------------------------|
D|------------------------------------------------------|
A|------------------------------------------------------|
E|------------------------------------------------------|
   b            e         D             F#           b

Bass Solo:
        (02:38)
G|-------------------------------------------------|
D|-----------------------0---------------------4-2-|
A|-2-0--2-0--2--0-2--0-2---2-0--2-0--2--0-2--0-----|
E|-------------------------------------------------| x 2

BASS
 (02:47)                                (03:10)
G|---------------------|     4th time  G|---------------------|
D|----0-22-1-00-2-44-2-|               D|----0-22-1-00-2-4444-|
A|-22------------------|               A|-22------------------|
E|---------------------| x 4           E|---------------------|
Guitar plays the intro part I (its very quiet so you almost cant hear it)

Well I don't wanna hang around with you
I've got my motor baby and I'm gonna see you through (2
You think I wanna be alone with you
It doesn't matter baby cause you're overreacted too
But since you're down there, where will I just be I'm getting fine girl, dressing up
for stormy weather

 (2  3:01... repeat this 5 times in 2nd guitar then go to "1)"
e|---7--------------------|----------2------------------------------------------|
B|-----7---8---7-------7--|----------2------------------------------------------|
G|-------7------7----6----|----------3------------------------------------------|
D|---------------7-8------|----------4------------------------------------------|
A|------------------------|----------4------------------------------------------|
E|------------------------|----------2------------------------------------------|
                           "overreacted   Too...

RERAIN

INTRO part II



hey, you seem to like this song, but did you like my tab? or is it crap? i
hope it is ok -please rate it. thanks a lot! 
===============================================================================





Comments


Popular Mando Diao tabs & chords
You Cant Steal My Love Bass Tabs
Gold Chords
Josephine Chords
Nothing Without You Chords
Nothing Without You 1 Chords
If I Dont Live Today Intro Tabs
Ringing Bells Tabs
Sheepdog 2 Tabs
You Dont Understand Me Tabs
Blue Lining White Trenchcoat Ukulele


Song lyrics



↑ Back to top | Tablatures and chords are parodies/interpretations of the original songs. You may use it for private study, scholarship, research or language learning purposes only
© 2014 AZChords.com Contact us | Privacy policy | DMCA | Add/correct tabs | Request tabs | Top 50 tabs