» » »

Madsen, Goodbye Logik Tabs (ver.2)

Artists:  A B C D E F G H I J K L M N O P Q R S T U V W X Y Z # 

Goodbye Logik Tabs (ver.2)

Madsen Tabs
Rating:
5/5 (4 votes)
Goodbye Logik lessons Tabs too difficult? Try these video lessons and learn fast
                Madsen - Goodbye Logik



Vers:

e|------------------------------------------|
b|------------------------------------------|
g|------------------------------------------|
d|--12-12-11-11-------9-9-----12-12-11-11---|
a|--------------12-12-----9-9---------------|
e|------------------------------------------|


e|------------------------------------------|
b|------------------------------------------|
g|------------------------------------------|
d|--12-12-11-11-------9-9-----11-11-9-9-----|
a|--------------12-12-----9-9---------------|
e|------------------------------------------|


e|------------------------------------------|
b|------------------------------------------|
g|------------------------------------------|
d|--12-12-11-11-------9-9-----12-12-11-11---|
a|--------------12-12-----9-9---------------|
e|------------------------------------------|


e|------------------------------------------|
b|------------------------------------------|
g|------------------------------------------|
d|--12-12-11-11----------12-12-11-11--------|
a|--------------12-12----------------12-12--|



Refrain (Powerchords):

G   E   H   D         G   E   H   D   E
            

comments powered by Disqus
↑ Back to top | Madsen Tabs for Goodbye Logik. Lyrics for acoustic guitar and electric guitar. Tablatures and chords are parodies/interpretations of the original songs. You may use it for private study, scholarship, research or language learning purposes only