» » »

Madsen, Goodbye Logik Tabs (ver.1)

Artists:  A B C D E F G H I J K L M N O P Q R S T U V W X Y Z # 

Goodbye Logik Tabs (ver.1)

Madsen Tabs
 Rating:
4/5 (7 votes)
Goodbye Logik lessons Tabs too difficult? Try these video lessons and learn fast
1
                madsen

goodbye logik

Tunig wich is the same as the english B.
enjoy!


Intro play twice

Git 1
e]--------------------------------|
H]3-3-2-2-------------3-3-2-2-----|
G]--------2-2-4-4-----------------|
D]----------------4-4-------------|
A]--------------------------------|
E]--------------------------------|
  1   +   2   +   3   +   4   +

Git 2
e]--------------------------------|
H]--------------------------------|
G]--------------------------------|
D]9-9-----9-9-----9-9-------7-7-7-|
A]9-9-----9-9-----9-9-------7-7-7-|
E]7-7-----7-7-----7-7-------5-5-5-|
  1   +   2   +   3   +   4   +

Git 1
e]--------------------------------|
H]3-3-2-2-------------2-2-0-0-----|
G]--------2-2-4-4-----------------|
D]----------------4-4-------------|
A]--------------------------------|
E]--------------------------------|
  1   +   2   +   3   +   4   +

Git 2
e]--------------------------------|
H]--------------------------------|
G]--------------------------------|
D]9-9-----9-9-----9-9-------7-7-7-|
A]9-9-----9-9-----9-9-------7-7-7-|
E]7-7-----7-7-----7-7-------5-5-5-|
  1   +   2   +   3   +   4   +

Git 1
e]--------------------------------|
H]3-3-2-2-------------3-3-2-2-----|
G]--------2-2-4-4-----------------|
D]----------------4-4-------------|
A]--------------------------------|
E]--------------------------------|
  1   +   2   +   3   +   4   +

Git 2
e]--------------------------------|
H]--------------------------------|
G]--------------------------------|
D]2-2-----2-2-----2-2-------5-5-5-|
A]4-4-----4-4-----4-4-------5-5-5-|
E]2-2-----2-2-----2-2-------3-3-3-|
  1   +   2   +   3   +   4   +

Git 1
e]--------------------------------|
H]3-3-2-2---------3-3-2-2---------|
G]--------2-2-------------2-2-----|
D]------------4-4-----------------|
A]--------------------------------|
E]--------------------------------|
  1   +   2   +   3   +   4   +

Git 2
e]--------------------------------|
H]--------------------------------|
G]--------------------------------|
D]2-2-----2-2-----4-4-------------|
A]2-2-----2-2-----4-4-------------|
E]0-0-----0-0-----2-2-------------|
  1   +   2   +   3   +   4   +

----------> than verse 1:

Git 2
e]--------------------------------|
H]--------------------------------|
G]--------------------------------|
D]9-9-----9-9-----9-9-------7-7-7-|
A]9-9-----9-9-----9-9-------7-7-7-|
E]7-7-----7-7-----7-7-------5-5-5-|
  1   +   2   +   3   +   4   +

Kein Plan, keine Strategie

Git 2
e]--------------------------------|
H]--------------------------------|
G]--------------------------------|
D]9-9-----9-9-----9-9-------7-7-7-|
A]9-9-----9-9-----9-9-------7-7-7-|
E]7-7-----7-7-----7-7-------5-5-5-|
  1   +   2   +   3   +   4   +

keine Tricks, keine Philosophie

Git 2
e]--------------------------------|
H]--------------------------------|
G]--------------------------------|
D]2-2-----2-2-----2-2-------5-5-5-|
A]4-4-----4-4-----4-4-------5-5-5-|
E]2-2-----2-2-----2-2-------3-3-3-|
  1   +   2   +   3   +   4   +

keine Ahnung was mit uns passiert

Git 2
e]--------------------------------|
H]--------------------------------|
G]--------------------------------|
D]2-2-----2-2-----4-4-------7-7-7-|
A]2-2-----2-2-----4-4-------7-7-7-|
E]0-0-----0-0-----2-2-------5-5-5-|
  1   +   2   +   3   +   4   +

sag mir, wo bin ich hier?

--> Than Git 1 starts Intro Riff. mute Git 2

Git 1
e]--------------------------------|
H]3-3-2-2-------------3-3-2-2-----|
G]--------2-2-4-4-----------------|
D]----------------4-4-------------|
A]--------------------------------|
E]--------------------------------|
  1   +   2   +   3   +   4   +

Git 2
e]--------------------------------|
H]--------------------------------|
G]--------------------------------|
D]9-9-----------------------7-7-7-|
A]9-9-----------------------7-7-7-|
E]7-7-----------------------5-5-5-|
  1   +   2   +   3   +   4   +

keine Idee, keine Mathematik

Git 1
e]--------------------------------|
H]3-3-2-2-------------2-2-0-0-----|
G]--------2-2-4-4-----------------|
D]----------------4-4-------------|
A]--------------------------------|
E]--------------------------------|
  1   +   2   +   3   +   4   +


Git 2
e]--------------------------------|
H]--------------------------------|
G]--------------------------------|
D]9-9-----------------------7-7-7-|
A]9-9-----------------------7-7-7-|
E]7-7-----------------------5-5-5-|
  1   +   2   +   3   +   4   +

keine Gewohnheit und kein Prinzip

Git 1
e]--------------------------------|
H]3-3-2-2-------------3-3-2-2-----|
G]--------2-2-4-4-----------------|
D]----------------4-4-------------|
A]--------------------------------|
E]--------------------------------|
  1   +   2   +   3   +   4   +

Git 2
e]--------------------------------|
H]--------------------------------|
G]--------------------------------|
D]2-2-----2-2-----2-2-------5-5-5-|
A]4-4-----4-4-----4-4-------5-5-5-|
E]2-2-----2-2-----2-2-------3-3-3-|
  1   +   2   +   3   +   4   +

ich weiß nicht wer du bist und wie du heißt

Git 1
e]--------------------------------|
H]3-3-2-2---------3-3-2-2---------|
G]--------2-2-------------2-2-----|
D]------------4-4-----------------|
A]--------------------------------|
E]--------------------------------|
  1   +   2   +   3   +   4   +

Git 2
e]--------------------------------|
H]--------------------------------|
G]--------------------------------|
D]2-2-----2-2-----4-4-------7-7-7-|
A]2-2-----2-2-----4-4-------7-7-7-|
E]0-0-----0-0-----2-2-------5-5-5-|
  1   +   2   +   3   +   4   +
			    I-->distortion from here
doch ich will, dass du bleibst

refrain:
Git 1
e]--------------------------------|
H]7-------7-------7-------7---8---|
G]----7-------7-------7-----------|
D]--------------------------------|
A]--------------------------------|
E]--------------------------------|
  1   +   2   +   3   +   4   +

Git 2
e]--------------------------------|
H]--------------------------------|
G]--------------------------------|
D]5-5-5-5-5-5-5-5-5-5-5-5-5-5-5-5-|
A]5-5-5-5-5-5-5-5-5-5-5-5-5-5-5-5-|
E]3-3-3-3-3-3-3-3-3-3-3-3-3-3-3-3-|
  1   +   2   +   3   +   4   +
		Good bye Logik

Git 1
e]--------------------------------|
H]7-------7-------7-------7---8---|
G]----7-------7-------7-----------|
D]--------------------------------|
A]--------------------------------|
E]--------------------------------|
  1   +   2   +   3   +   4   +

Git 2
e]--------------------------------|
H]--------------------------------|
G]9-9-9-9-9-9-9-9-9-9-9-9-9-9-9-9-|
D]9-9-9-9-9-9-9-9-9-9-9-9-9-9-9-9-|
A]7-7-7-7-7-7-7-7-7-7-7-7-7-7-7-7-|
E]--------------------------------|
  1   +   2   +   3   +   4   +

  alles kommt anders als

Git 1
e]--------------------------------|
H]10------10------10------7---8---|
G]----7-------7-------7-----------|
D]--------------------------------|
A]--------------------------------|
E]--------------------------------|
  1   +   2   +   3   +   4   +

Git 2
e]--------------------------------|
H]--------------------------------|
G]4-4-4-4-4-4-4-4-4-4-4-4-4-4-4-4-|
D]4-4-4-4-4-4-4-4-4-4-4-4-4-4-4-4-|
A]2-2-2-2-2-2-2-2-2-2-2-2-2-2-2-2-|
E]--------------------------------|
  1   +   2   +   3   +   4   +

  geplant 	Good bye Logik

e]----------------7-------7-------|
H]10------10----------------------|
G]----7-------7-------7--------7--|
D]--------------------------------|
A]--------------------------------|
E]--------------------------------|
  1   +   2   +   3   +   4   +

Git 2
e]--------------------------------|
H]--------------------------------|
G]7-7-7-7-7-7-7-7-7-7-7-7-7-7-7-7-|
D]7-7-7-7-7-7-7-7-7-7-7-7-7-7-7-7-|
A]5-5-5-5-5-5-5-5-5-5-5-5-5-5-5-5-|
E]--------------------------------|
  1   +   2   +   3   +   4   +

  mein Herz besiegt meinen

Git 1
e]--------------------------------|
H]7-------7-------7-------7---8---|
G]----7-------7------7------------|
D]--------------------------------|
A]--------------------------------|
E]--------------------------------|
  1   +   2   +   3   +   4   +

Git 2
e]--------------------------------|
H]--------------------------------|
G]--------------------------------|
D]5-5-5-5-5-5-5-5-5-5-5-5-5-5-5-5-|
A]5-5-5-5-5-5-5-5-5-5-5-5-5-5-5-5-|
E]3-3-3-3-3-3-3-3-3-3-3-3-3-3-3-3-|
  1   +   2   +   3   +   4   +

  Verstand    Good bye Logik

Git 1
e]--------------------------------|
H]7-------7-------7-------7---8---|
G]----7-------7-------7-----------|
D]--------------------------------|
A]--------------------------------|
E]--------------------------------|
  1   +   2   +   3   +   4   +

Git 2
e]--------------------------------|
H]--------------------------------|
G]9-9-9-9-9-9-9-9-9-9-9-9-9-9-9-9-|
D]9-9-9-9-9-9-9-9-9-9-9-9-9-9-9-9-|
A]7-7-7-7-7-7-7-7-7-7-7-7-7-7-7-7-|
E]--------------------------------|

     es ist nichts mehr wie es

Git 1
e]--------------------------------|
H]10------10------10------7---8---|
G]----7-------7-------7-----------|
D]--------------------------------|
A]--------------------------------|
E]--------------------------------|
  1   +   2   +   3   +   4   +

Git 2
e]--------------------------------|
H]--------------------------------|
G]4-4-4-4-4-4-4-4-4-4-4-4-4-4-4-4-|
D]4-4-4-4-4-4-4-4-4-4-4-4-4-4-4-4-|
A]2-2-2-2-2-2-2-2-2-2-2-2-2-2-2-2-|
E]--------------------------------|
  1   +   2   +   3   +   4   +

  war      Good bye Logik

e]----------------7-------7-------|
H]10------10----------------------|
G]----7-------7-------7-------7---|
D]--------------------------------|
A]--------------------------------|
E]--------------------------------|
  1   +   2   +   3   +   4   +

Git 2
e]--------------------------------|
H]--------------------------------|
G]7-7-7-7-7-7-7-7-9-9-9-9-9-9-9-9-|
D]7-7-7-7-7-7-7-7-9-9-9-9-9-9-9-9-|
A]5-5-5-5-5-5-5-5-7-7-7-7-7-7-7-7-|
E]--------------------------------|
  1   +   2   +   3   +   4   +

  mein Herz besiegt meinen

Bridge1:

Git 1
e]--------------------------------|
H]3-3-2-2-------------3-3-2-2-----|
G]--------2-2-4-4-----------------|
D]----------------4-4-------------|
A]--------------------------------|
E]--------------------------------|
  1   +   2   +   3   +   4   +

Git 2
e]--------------------------------|
H]--------------------------------|
G]--------------------------------|
D]9-9-----9-9-----9-9-------7-7-7-|
A]9-9-----9-9-----9-9-------7-7-7-|
E]7-7-----7-7-----7-7-------5-5-5-|
  1   +   2   +   3   +   4   +

  Verstand

Git 1
e]--------------------------------|
H]3-3-2-2-------------2-2-0-0-----|
G]--------2-2-4-4-----------------|
D]----------------4-4-------------|
A]--------------------------------|
E]--------------------------------|
  1   +   2   +   3   +   4   +

Git 2
e]--------------------------------|
H]--------------------------------|
G]--------------------------------|
D]9-9-----9-9-----9-9-------7-7-7-|
A]9-9-----9-9-----9-9-------7-7-7-|
E]7-7-----7-7-----7-7-------5-5-5-|
  1   +   2   +   3   +   4   +

Verse 2:

Git 2
e]--------------------------------|
H]--------------------------------|
G]--------------------------------|
D]9-9-----9-9-----9-9-------7-7-7-|
A]9-9-----9-9-----9-9-------7-7-7-|
E]7-7-----7-7-----7-7-------5-5-5-|
  1   +   2   +   3   +   4   +

unangemeldet und unerhofft

Git 2
e]--------------------------------|
H]--------------------------------|
G]--------------------------------|
D]9-9-----9-9-----9-9-------7-7-7-|
A]9-9-----9-9-----9-9-------7-7-7-|
E]7-7-----7-7-----7-7-------5-5-5-|
  1   +   2   +   3   +   4   +

unüberlegt und unverkopft

Git 2
e]--------------------------------|
H]--------------------------------|
G]--------------------------------|
D]2-2-----2-2-----2-2-------5-5-5-|
A]4-4-----4-4-----4-4-------5-5-5-|
E]2-2-----2-2-----2-2-------3-3-3-|
  1   +   2   +   3   +   4   +

keine Erwartung, kein Rendezvous

Git 2
e]--------------------------------|
H]--------------------------------|
G]--------------------------------|
D]2-2-----2-2-----4-4-------7-7-7-|
A]2-2-----2-2-----4-4-------7-7-7-|
E]0-0-----0-0-----2-2-------5-5-5-|
  1   +   2   +   3   +   4   +

und jetzt kommst du

--> Than Git 1 starts Intro Riff. mute Git 2

Git 1
e]--------------------------------|
H]3-3-2-2-------------3-3-2-2-----|
G]--------2-2-4-4-----------------|
D]----------------4-4-------------|
A]--------------------------------|
E]--------------------------------|
  1   +   2   +   3   +   4   +

Git 2
e]--------------------------------|
H]--------------------------------|
G]--------------------------------|
D]9-9-----------------------7-7-7-|
A]9-9-----------------------7-7-7-|
E]7-7-----------------------5-5-5-|
  1   +   2   +   3   +   4   +

ich verschenke was ich hab

Git 1
e]--------------------------------|
H]3-3-2-2-------------2-2-0-0-----|
G]--------2-2-4-4-----------------|
D]----------------4-4-------------|
A]--------------------------------|
E]--------------------------------|
  1   +   2   +   3   +   4   +


Git 2
e]--------------------------------|
H]--------------------------------|
G]--------------------------------|
D]9-9-----------------------7-7-7-|
A]9-9-----------------------7-7-7-|
E]7-7-----------------------5-5-5-|
  1   +   2   +   3   +   4   +

male Bilder mit neuen Farben

Git 1
e]--------------------------------|
H]3-3-2-2-------------3-3-2-2-----|
G]--------2-2-4-4-----------------|
D]----------------4-4-------------|
A]--------------------------------|
E]--------------------------------|
  1   +   2   +   3   +   4   +

Git 2
e]--------------------------------|
H]--------------------------------|
G]--------------------------------|
D]2-2-----2-2-----2-2-------5-5-5-|
A]4-4-----4-4-----4-4-------5-5-5-|
E]2-2-----2-2-----2-2-------3-3-3-|
  1   +   2   +   3   +   4   +

ich weiß nicht wie und ich weiß nicht warum

Git 1
e]--------------------------------|
H]3-3-2-2---------3-3-2-2---------|
G]--------2-2-------------2-2-----|
D]------------4-4-----------------|
A]--------------------------------|
E]--------------------------------|
  1   +   2   +   3   +   4   +

Git 2
e]--------------------------------|
H]--------------------------------|
G]--------------------------------|
D]2-2-----2-2-----4-4-------7-7-7-|
A]2-2-----2-2-----4-4-------7-7-7-|
E]0-0-----0-0-----2-2-------5-5-5-|
  1   +   2   +   3   +   4   +
			    I-->distortion from here
alles schreit nach Veränderung

-----> repeat Refrain

Bridge 2:

Git 2
e]--------------------------------|
H]--------------------------------|
G]--------------------------------|
D]5-5-5-5-5-5-5-5-5-5-5-5-5-5-5-5-|
A]5-5-5-5-5-5-5-5-5-5-5-5-5-5-5-5-|
E]3-3-3-3-3-3-3-3-3-3-3-3-3-3-3-3-|
  1   +   2   +   3   +   4   +

Verstand    alles was ich

Git 2
e]--------------------------------|
H]--------------------------------|
G]9-9-9-9-9-9-9-9-9-9-9-9-9-9-9-9-|
D]9-9-9-9-9-9-9-9-9-9-9-9-9-9-9-9-|
A]7-7-7-7-7-7-7-7-7-7-7-7-7-7-7-7-|
E]--------------------------------|
  1   +   2   +   3   +   4   +

hab    alles was ich

Git 2
e]--------------------------------|
H]--------------------------------|
G]4-4-4-4-4-4-4-4-4-4-4-4-4-4-4-4-|
D]4-4-4-4-4-4-4-4-4-4-4-4-4-4-4-4-|
A]2-2-2-2-2-2-2-2-2-2-2-2-2-2-2-2-|
E]--------------------------------|
  1   +   2   +   3   +   4   +

weiß   bis zu dir
Git 2
e]--------------------------------|
H]--------------------------------|
G]7-7-7-7-7-7-7-7-9-9-9-9-9-9-9-9-|
D]7-7-7-7-7-7-7-7-9-9-9-9-9-9-9-9-|
A]5-5-5-5-5-5-5-5-7-7-7-7-7-7-7-7-|
E]--------------------------------|
  1   +   2   +   3   +   4   +

hierhin      verliert auf einmal seinen

Git 2
e]--------------------------------|
H]--------------------------------|
G]--------------------------------|
D]5-5-5-5-5-5-5-5-5-5-5-5-5-5-5-5-|
A]5-5-5-5-5-5-5-5-5-5-5-5-5-5-5-5-|
E]3-3-3-3-3-3-3-3-3-3-3-3-3-3-3-3-|
  1   +   2   +   3   +   4   +

Sinn     unglaublich aber

Git 2
e]--------------------------------|
H]--------------------------------|
G]9-9-9-9-9-9-9-9-9-9-9-9-9-9-9-9-|
D]9-9-9-9-9-9-9-9-9-9-9-9-9-9-9-9-|
A]7-7-7-7-7-7-7-7-7-7-7-7-7-7-7-7-|
E]--------------------------------|
  1   +   2   +   3   +   4   +

wahr     unmöglich aber

Git 2
e]--------------------------------|
H]--------------------------------|
G]4-4-4-4-4-4-4-4-4-4-4-4-4-4-4-4-|
D]4-4-4-4-4-4-4-4-4-4-4-4-4-4-4-4-|
A]2-2-2-2-2-2-2-2-2-2-2-2-2-2-2-2-|
E]--------------------------------|
  1   +   2   +   3   +   4   +

da   es hat wohl seinen

Git 2
e]--------------------------------|
H]--------------------------------|
G]7-7-7-7-7-7-7-7-9-9-9-9-9-9-9-9-|
D]7-7-7-7-7-7-7-7-9-9-9-9-9-9-9-9-|
A]5-5-5-5-5-5-5-5-7-7-7-7-7-7-7-7-|
E]--------------------------------|
  1   +   2   +   3   +   4   +

Sinn     dass ich jetzt hier

solo:
Git 1 with Tremolo
play solo 2 times, the second time a thired guitar enters, playing the intro
Git 1
e]--------------------------------|
H]4-----------------------2-------|
G]--------------------------------|
D]--------------------------------|
A]--------------------------------|
E]--------------------------------|
  1   +   2   +   3   +   4   +

Git 2
e]--------------------------------|
H]--------------------------------|
G]--------------------------------|
D]9-9-----9-9-----9-9-------7-7-7-|
A]9-9-----9-9-----9-9-------7-7-7-|
E]7-7-----7-7-----7-7-------5-5-5-|
  1   +   2   +   3   +   4   +

bin --> sing only the first time

e]--------------------------------|
H]--------------------------------|
G]4-------------------------------|
D]--------------------------------|
A]--------------------------------|
E]--------------------------------|
  1   +   2   +   3   +   4   +

Git 2
e]--------------------------------|
H]--------------------------------|
G]--------------------------------|
D]9-9-----9-9-----9-9-------7-7-7-|
A]9-9-----9-9-----9-9-------7-7-7-|
E]7-7-----7-7-----7-7-------5-5-5-|
  1   +   2   +   3   +   4   +

e]--------------------------------|
H]--------------------------------|
G]2-----------------------0-------|
D]--------------------------------|
A]--------------------------------|
E]--------------------------------|
  1   +   2   +   3   +   4   +

Git 2
e]--------------------------------|
H]--------------------------------|
G]--------------------------------|
D]2-2-----2-2-----2-2-------5-5-5-|
A]4-4-----4-4-----4-4-------5-5-5-|
E]2-2-----2-2-----2-2-------3-3-3-|
  1   +   2   +   3   +   4   +

e]--------------------------------|
H]--------------------------------|
G]2-----------------------4-------|
D]--------------------------------|
A]--------------------------------|
E]--------------------------------|
  1   +   2   +   3   +   4   +

Git 2
e]--------------------------------|
H]--------------------------------|
G]--------------------------------|
D]2-2-----2-2-----4-4-------------|
A]2-2-----2-2-----4-4-------------|
E]0-0-----0-0-----2-2-------------|
  1   +   2   +   3   +   4   +

-----> repeat Refrain
            
Submit corrections

comments powered by Disqus
↑ Back to top | Madsen Tabs for Goodbye Logik. Lyrics for acoustic guitar and electric guitar. 1 Tablatures and chords are parodies/interpretations of the original songs. You may use it for private study, scholarship, research or language learning purposes only