» » »

Madsen, Du Schreibst Geschichte Bass tabs (ver.1)

Artists:  A B C D E F G H I J K L M N O P Q R S T U V W X Y Z # 

Du Schreibst Geschichte Bass tabs (ver.1)

Madsen Tabs
 Rating:
4/5 (4 votes)
Du Schreibst Geschichte lessons Tabs too difficult? Try these video lessons and learn fast
                Verse

G--------------------------------------------------------------|
D--------------------------------------------------------------|
A-88-88-88-88-88-88-88-88-------66-66-88-88-88-88--------------|
E-------------------------66-66--------------------------------|


Pre-Chorus

G--------------------------------------------------------------|
D--------------------------------------------------------------|
A-4-4-4-4-3-3-3-3-8-8-8-8-8-8-8-8-4-4-4-4----------------------|
E--------------------------------------------------------------|

G--------------------------------------------------------------|
D--------------------------------------------------------------|
A-3-3-3-3-1-1-1-1-1-1-1-1-6-6-6-6-6----------------------------|
E--------------------------------------------------------------|


Chorus 2x

G--------------------------------------------------------------|
D--------------------------------------------------------------|
A-8-8-8-8-8-8-8-8-8-8-8-8-8-8-8-8------------------------------|
E--------------------------------------------------------------|

G--------------------------------------------------------------|
D--------------------------------------------------------------|
A-1-1-1-1-1-1-1-1-1-1-1-1-1-1-1-1------------------------------|
E--------------------------------------------------------------|


G--------------------------------------------------------------|
D--------------------------------------------------------------|
A-4-4-4-4-4-4-4-4-4-4-4-4-4-4-4-4------------------------------|
E---------------------------------4-4-4-4-4-4-4-4--------------|

G--------------------------------------------------------------|
D--------------------------------------------------------------|
A-3-3-3-3-3-3-3-3----------------------------------------------|
E--------------------------------------------------------------|


Verse
G--------------------------------------------------------------|
D--------------------------------------------------------------|
A-88-88-88-88-88-88-88-88-2x-------66-66-88-88-88-88-----------|
E----------------------------66-66-----------------------------|

G--------------------------------------------------------------|
D--------------------------------------------------------------|
A-88-88-88-88-88-88-88-88-------66-66-88-88-88-88--------------|
E-------------------------66-66--------------------------------|


Pre-Chorus

G--------------------------------------------------------------|
D--------------------------------------------------------------|
A-4-4-4-4-3-3-3-3-8-8-8-8-8-8-8-8-4-4-4-4----------------------|
E--------------------------------------------------------------|

G--------------------------------------------------------------|
D--------------------------------------------------------------|
A-3-3-3-3-1-1-1-1-1-1-1-1-6-6-6-6-6----------------------------|
E--------------------------------------------------------------|


Chorus 2x

G--------------------------------------------------------------|
D--------------------------------------------------------------|
A-8-8-8-8-8-8-8-8-8-8-8-8-8-8-8-8------------------------------|
E--------------------------------------------------------------|

G--------------------------------------------------------------|
D--------------------------------------------------------------|
A-1-1-1-1-1-1-1-1-1-1-1-1-1-1-1-1------------------------------|
E--------------------------------------------------------------|


G--------------------------------------------------------------|
D--------------------------------------------------------------|
A-4-4-4-4-4-4-4-4-4-4-4-4-4-4-4-4------------------------------|
E---------------------------------4-4-4-4-4-4-4-4--------------|

G--------------------------------------------------------------|
D--------------------------------------------------------------|
A-3-3-3-3-3-3-3-3----------------------------------------------|
E--------------------------------------------------------------|


Verse
G--------------------------------------------------------------|
D--------------------------------------------------------------|
A-88-88-88-88-88-88-88-88-2x-------66-66-88-88-88-88-----------|
E----------------------------66-66-----------------------------|

G--------------------------------------------------------------|
D--------------------------------------------------------------|
A-88-88-88-88-88-88-88-88-------66-66-88-88-88-88--------------|
E-------------------------66-66--------------------------------|

ENDING


G--------------------------------------------------------------|
D--------------------------------------------------------------|
A-8-8-8-8-8-8-8-8-8-8-8-8-8-8-8-8------------------------------|
E--------------------------------------------------------------|

G--------------------------------------------------------------|
D--------------------------------------------------------------|
A-8-8-8-8-8-8-8-8-8-8-8-8-8-8-8-8------------------------------|
E--------------------------------------------------------------|


G--------------------------------------------------------------|
D--------------------------------------------------------------|
A-88-88-88-88-8------------------------------------------------|
E--------------------------------------------------------------|
            
Submit corrections

comments powered by Disqus
↑ Back to top | Madsen Bass for Du Schreibst Geschichte. Lyrics for acoustic guitar and electric guitar. Tablatures and chords are parodies/interpretations of the original songs. You may use it for private study, scholarship, research or language learning purposes only