>
 >
Die Perfektion

Die Perfektion Guitar Tabs

Madsen - Die Perfektion chords, tabs, tablatures, lyrics

Guitar lessons | Add/correct | Request | Top 50 tabs Artists:  A B C D E F G H I J K L M N O P Q R S T U V W X Y Z 0-9

Die Perfektion Guitar Tabs – Madsen

CD, Sheet music, Poster

Do you like Die Perfektion? Share with your friends now
Bass TabsTabs
################################################################
################################################################

Die Perfektion (Gitarre)
| = grenzen die takte von einander ab
x =seite ist gedämpt
/ =slide in Richtung Brücke
\ =slide in Richtung Kopf

Intro

Git1    (1)         (2)          (3)         (4)
E|------------|------------|------------|------------|
B|------------|------------|------------|------------|
G|------------|------------|-5--5--5-5-5|-5--5--5-5-5|
D|-5--5--5-5-5|-5--5--5-5-5|-5--5--5-5-5|-5--5--5-5-5|   2x
A|-5--5--5-5-5|-5--5--5-5-5|-3--3--3-3-3|-3--3--3-3-3|
E|-3--3--3-3-3|-3--3--3-3-3|------------|------------|
beim 2ten mal den letzten takt nicht spielen!

Git2
E|------------|------------|------------|-------------|
B|------------|------------|------------|-------------|
G|12-12-121212|10-10-101010|-9--9--9-9-9|-8--8--8/1010|
D|12-12-121212|10-10-101010|-9--9--9-9-9|-x--x--x--x-x|   2x
A|10-10-101010|-8--8--8-8-8|-7--7--7-7-7|-6--6--6/-8-8|
E|------------|------------|------------|-------------|
auch beim 2ten mal den letzten takt nicht spielen!

Strophe(Wo kommst du her?..so was wie dich...)

git1+2
E|------------|------------|------------|-------------|
B|------------|------------|------------|-------------|
G|12-12-121212|10-10-101010|-9--9--9-9-9|-8--8--8/1010|
D|-x--x--x-x-x|-x--x--x-x-x|-x--x--x-x-x|-x--x--x--x-x|   2x
A|10-10-101010|-8--8--8-8-8|-7--7--7-7-7|-6--6--6/-8-8|
E|------------|------------|------------|-------------|

Brücke(...nicht zu gut, nicht zu schlecht...

git1
E|----------------|----------------|----------------|----------------|
B|----------------|----------------|----------------|----------------|
G|1212121212121212|1010101010101010|-9-9-9-9-9-9-9-9|-8--------------|
D|-x-x-x-x-x-x-x-x|-x-x-x-x-x-x-x-x|-x-x-x-x-x-x-x-x|-x--------------|   
A|1010101010101010|-8-8-8-8-8-8-8-8|-7-7-7-7-7-7-7-7|-6--------------|
E|----------------|----------------|----------------|----------------|

git2
E|----------------|----------------|----------------|----------------|
B|----------------|----------------|----------------|----------------|
G|1212121212121212|1212121212121212|1212121212121212|12/14-----------|
D|-x-x-x-x-x-x-x-x|-x-x-x-x-x-x-x-x|-x-x-x-x-x-x-x-x|-x--x-----------|   
A|1010101010101010|1010101010101010|1010101010101010|10/12-----------|
E|----------------|----------------|----------------|----------------|

Refrain(Du bist Perfekt,makellos...)

git1
E|----------------|----------------|----------------|----------------|
B|----------------|----------------|----------------|----------------|
G|----------------|--5---5---5---5-|----------------|--4---4---4---4-|
D|--2---2---2---2-|--5---5---5---5-|--5---5---5---5-|--4---4---4---4-| x2  
A|--2---2---2---2-|--3---3---3---3-|--5---5---5---5-|--2---2---2---2-|
E|--0---0---0---0-|----------------|--3---3---3---3-|----------------|

git2
E|----------------|----------------|----------------|----------------|
B|----------------|----------------|----------------|----------------|
G|1212121212121212|-9-9-9-9-9-9-9-9|1212121212121212|1111111111111111|
D|-x-x-x-x-x-x-x-x|-x-x-x-x-x-x-x-x|-x-x-x-x-x-x-x-x|-x-x-x-x-x-x-x-x|   
A|1010101010101010|-7-7-7-7-7-7-7-7|1010101010101010|-9-9-9-9-9-9-9-9|
E|----------------|----------------|----------------|----------------|

git1
E|----------------|----------------|----------------|----------------|
B|----------------|----------------|----------------|----------------|
G|----------------|-5-5-5-5-5-5-5-5|-4-4-4-4-4-4-4-4|5\4-5\4-5\4-5\4-|
D|-2-2-2-2-2-2-2-2|-5-5-5-5-5-5-5-5|-4-4-4-4-4-4-4-4|5\4-5\4-5\4-5\4-| x2  
A|-2-2-2-2-2-2-2-2|-3-3-3-3-3-3-3-3|-2-2-2-2-2-2-2-2|3\2-3\2-3\2-3\2-|
E|-0-0-0-0-0-0-0-0|----------------|----------------|----------------|

git2
E|----------------|----------------|----------------|--------------------|
B|----------------|----------------|----------------|--------------------|
G|1616161616161616|1717171717171717|1616161616161616|17\1617\1617\1617\16|
D|-x-x-x-x-x-x-x-x|-x-x-x-x-x-x-x-x|-x-x-x-x-x-x-x-x|-x--x-x--x-x--x-x--x| x2  
A|1414141414141414|1515151515151515|1414141414141414|15\1415\1415\1415\14|
E|----------------|----------------|----------------|--------------------|

beim letzen takt aber so:
git1E|----------------|    git2E|----------------|
    B|----------------|        B|----------------|
    G|-7-7-7-7-7------|        G|2020202020------|
    D|-7-7-7-7-7------|        D|-x-x-x-x-x------|
    A|-5-5-5-5-5------|        A|1717171717------|
    E|----------------|        E|----------------|

Jetzt wieder intro, danach strophe, refrain, und den rest bekommt ihr so hin!

################################################################
################################################################





Comments


Popular Madsen tabs & chords
Der Moment Chords
Nimm Den Regen Mit Chords
Blockade Tabs
Goodbye Logik 1 Tabs
Mein Herz Bleibt Hier 1 Tabs
Willkommen Im Chaos Tabs
Astronaut Ukulele
Diese Kinder Ukulele
Grausam Und Schoen Ukulele
Wo Es Beginnt Ukulele


Song lyrics



↑ Back to top | Tablatures and chords are parodies/interpretations of the original songs. You may use it for private study, scholarship, research or language learning purposes only
© 2014 AZChords.com Contact us | Privacy policy | DMCA | Add/correct tabs | Request tabs | Top 50 tabs