» » »

Mad Season, Lifeless Dead Tabs (ver.1)

Artists:  A B C D E F G H I J K L M N O P Q R S T U V W X Y Z # 

Lifeless Dead Tabs (ver.1)

Mad Season Tabs
Rating:
4/5 (3 votes)
Lifeless Dead lessons Tabs too difficult? Try these video lessons and learn fast
                -----------------------------------------------------------------------------
-----------------------------------------------------------------------------

Tuning: Standard      

Riff at start and chorus

 e|----------------------------------|
 B|----------------------------------|
 G|----------------------------------|
 D|-----7--7--5----------------------|
 A|--------------6----0-3-4-5-5-0----|
 E|----------------------------------|

Verse:

"Lifeless dead, that unclean bed....."

 e|----------------------------|
 B|----------------------------|
 G|----------------------------|
 D|------5-7-5-7-----5-7-5-7---|  
 A|----------------------------|  
 E|----------------------------|

Play above (2x) then at the end of the second time add these
two chords:

 e|--------------|
 B|--------------|
 G|---10---9\----|
 D|---X----X-----|
 A|---8----7\----|
 E|--------------|

Play above a few times then play:

"Alone on dirty floor he slept...."

 e|----------------------|----------------------|
 B|----------------------|----------------------|
 G|----------------------|--10--9---5--5--4--2--|
 D|---5-7-5-7---5-7-5-7--|--X---X---X--X--X--2--|
 A|----------------------|--8---7---3--3--2--0--|
 E|----------------------|----------------------|

Bridge 4x

      "He....   Said....        She...    Said..."   End on 4th time

 e|------------------------|-----------------------|-----------|
 B|------------------------|-----------------------|-----------|
 G|----12-12-12-11-11-11---|-----------------------|-----------|
 D|----12-12-12-11-11-11---|----12-12-12-11-11-11--|--9-9-9-9--|
 A|----10-10-10-9--9--9----|----12-12-12-11-11-11--|--9-9-9-9--|
 E|------------------------|----10-10-10-9--9--9---|--7-7-7-7--|

Solo comes in. Second guitar plays:

  4x
 e|----------------------------------|
 B|----------------------------------|
 G|----------------------------------|
 D|----------------------------------|
 A|-----7--7--5----------------------|
 E|--------------6----0-3-4-5-5-0----|

Then after the solo play this until the song ends.

      "Lifeless Dead...."
 e|----------------------|----------|
 B|----------------------|----------|
 G|----------------------|----------|
 D|----------------------|--10--9\--|
 A|---5-7-5-7---5-7-5-7--|--x---x---|
 E|----------------------|--8---7\--| 

Thats it..

************************************

| /   slide up
| \   slide down
| h   hammer-on
| p   pull-off
| ~   vibrato
| +   harmonic
| x   Mute note
| b   Bend
| pb  Pre-bend
| br  Bend release
| pbr Pre-bend release
| brb Bend release bend

************************************
            
Submit corrections

comments powered by Disqus
↑ Back to top | Mad Season Tabs for Lifeless Dead. Lyrics for acoustic guitar and electric guitar. Tablatures and chords are parodies/interpretations of the original songs. You may use it for private study, scholarship, research or language learning purposes only