>
 >
I Don't Know Anything

I Don't Know Anything Guitar Tabs

Mad Season - I Don't Know Anything chords, tabs, tablatures, lyrics

Guitar lessons | Add/correct | Request | Top 50 tabs Artists:  A B C D E F G H I J K L M N O P Q R S T U V W X Y Z 0-9

I Don't Know Anything Guitar Tabs – Mad Season

CD, Sheet music, Poster

Do you like I Don't Know Anything? Share with your friends now
Bass TabsTabsTabs v2Tabs v3
-------------------------------------------------------------------------------
-------------------------------------------------------------------------------


Intro/Verse:
e|------ (play 3x) -----|------ (play 1x) --------|
B|----------------------|-------------------------|
G|----------------------|-------------------------|  5x 
D|---2------------------|---2----------5+----5+---|
A|---2------------------|---2-------------5+------|
E|---0--4+-0-4+-0--2b---|---0--4+-0-4+------------|

Chorus:
e|----------------------------------------------------------------|
B|----------------------------------------------------------------|
G|----------------------------------------------------------------|  2x  
D|--2---2-2---2-2-2-4-5-2---2-2-8-8---8-8---8-8-8-8-7-7-7-7---5---|
A|--2---2-2---2-2-2-4-5-2---2-2-8-8---8-8---8-8-8-8-7-7-7-7---5---|
E|--0---0-0---0-0-0-2-3-0---0-0-6-6---6-6---6-6-6-6-5-5-5-5---3---|
     Why we have to live in so much hate everyday? Oh yeah


2nd verse:
e|------ (play 3x) -----|------ (play 1x) --------|
B|----------------------|-------------------------|
G|----------------------|-------------------------|  3x
D|---2------------------|---2----------5+----5+---|
A|---2------------------|---2-------------5+------|
E|---0--4+-0-4+-0--2b---|---0--4+-0-4+------------|

Chorus:
e|----------------------------------------------------------------|
B|----------------------------------------------------------------|
G|----------------------------------------------------------------|  4x
D|--2---2-2---2-2-2-4-5-2---2-2-8-8---8-8---8-8-8-8-7-7-7-7---5---|
A|--2---2-2---2-2-2-4-5-2---2-2-8-8---8-8---8-8-8-8-7-7-7-7---5---|
E|--0---0-0---0-0-0-2-3-0---0-0-6-6---6-6---6-6-6-6-5-5-5-5---3---|
     Why we have to live in so much hate everyday? Oh yeah


1st solo:

Rhythm guitar:
e|----- play 8x ------|------ play 1x ------|
B|--------------------|---------------------|
G|--------------------|---------------------|    
D|---0-------2--2-2---|---0-------2--2------|
A|-----------2--2-2---|-----------2--2------|
E|------3b---0--0-0---|------3b---0--0-2b---|


Lead guitar:
W/Wah wah
e|-------------------------------|
B|-------------------------------|
G|-------------------------------|
D|---8b--8b--8b--8p7p5-----------|
A|---------------------7-7-7-7---|
E|-------------------------------|

e|---------------------------------------|
B|---------------------------------------|
G|-------7---7h9-9-9--12p9-12-12-9-9p7---|
D|---7h9---9-----------------------------|
A|---------------------------------------|
E|---------------------------------------|

e|---------------------------------------------------|
B|---10p8---8-------------10b-10br8---8h10---8-8-8---|
G|--------9---9p7h9-9-9-------------9----------------|
D|---------------------------------------------------|
A|---------------------------------------------------|
E|---------------------------------------------------|

e|---------------------|
B|---------------------|
G|-----------------7---|
D|---8b--8b--8b--8-----|
A|---------------------|
E|---------------------|


3rd verse:
e|------ (play 2x) -----|------ (play 1x) --------|
B|----------------------|-------------------------|
G|----------------------|-------------------------|  1x
D|---2------------------|---2----------5+----5+---|
A|---2------------------|---2-------------5+------|
E|---0--4+-0-4+-0--2b---|---0--4+-0-4+------------|

e|------ (play 3x) -----|------ (play 1x) --------|
B|----------------------|-------------------------|
G|----------------------|-------------------------|  2x
D|---2------------------|---2----------5+----5+---|
A|---2------------------|---2-------------5+------|
E|---0--4+-0-4+-0--2b---|---0--4+-0-4+------------|

Chorus:
e|----------------------------------------------------------------|
B|----------------------------------------------------------------|
G|----------------------------------------------------------------|  4x
D|--2---2-2---2-2-2-4-5-2---2-2-8-8---8-8---8-8-8-8-7-7-7-7---5~--|
A|--2---2-2---2-2-2-4-5-2---2-2-8-8---8-8---8-8-8-8-7-7-7-7---5~--|
E|--0---0-0---0-0-0-2-3-0---0-0-6-6---6-6---6-6-6-6-5-5-5-5---3~--|
     Why we have to live in so much hate everyday? Oh yeah


2nd solo:
Rhythm guitar:
e|----- play 15x -----|--- play 1x ---|
B|--------------------|---------------|
G|--------------------|---------------|   
D|---0-------2--2-2---|---0-------2---|
A|-----------2--2-2---|-----------2---|
E|------3b---0--0-0---|------3b---0---|

Lead guitar:
W/Wah wah
e|-------------------------------------------------------------------|
B|---2/20-20-20-20-20-20-20-20-19-19-19-19-18-18-18-18-17-17-17-17---|
G|---2/19-19-19-19-19-19-19-19-18-18-18-18-17-17-17-17-16-16-16-16---|
D|-------------------------------------------------------------------|
A|-------------------------------------------------------------------|
E|-------------------------------------------------------------------|

e|-------------------------|
B|---10p8---------10p8-----|
G|--------9-9-9--------9---|
D|-------------------------|
A|-------------------------|
E|-------------------------|

 W/Delay
e|------------------------0-0-0-0-0-0---------0-0-0-0---|
B|------------------------x-x-x-x-x-x---------x-x-x-x---|
G|------------------------7-7-7-9-9-9--9p7----9-9-9-9---|
D|---7b-----7br5---5-----------------------9------------|
A|---------------7--------------------------------------|
E|------------------------------------------------------|

e|-------------------------------------------------------------------------|
B|---20br17----17h20---20br17----17h20---20br17----17-17--17p15------------|
G|----------18----------------18----------------18--------------16p15p14---|
D|-------------------------------------------------------------------------|
A|-------------------------------------------------------------------------|
E|-------------------------------------------------------------------------|

e|------------------------------------|
B|------------------------------------|
G|---14br12----12h14p12-----9~9~9~9~--|
D|----------14------------------------|
A|------------------------------------|
E|------------------------------------|

e|---17br15----15----17br15----15---0-0-0-0-0-------------|
B|----------17--------------17------x-x-x-x-x-------------|
G|----------------------------------9-9-7-7-7-------------|
D|----------------------------------------------8~~~~-----|
A|--------------------------------------------------------|
E|--------------------------------------------------------|


| \   slide down
| h   hammer-on
| p   pull-off
| ~   vibrato
| +   harmonic
| b   Bend
| br  Bend release





Comments


Popular Mad Season tabs & chords
Artificial Red Bass Tabs
I Don't Know Anything Bass Tabs
I'm Above Bass Tabs
Long Gone Day Bass Tabs
Wake Up Bass Tabs
Wake Up Chords
I Don't Know Anything 2 Tabs
I Dont Know Anything Intro Tabs
Lifeless Dead 1 Tabs
X Ray Mind Tabs


Song lyrics



↑ Back to top | Tablatures and chords are parodies/interpretations of the original songs. You may use it for private study, scholarship, research or language learning purposes only
© 2014 AZChords.com Contact us | Privacy policy | DMCA | Add/correct tabs | Request tabs | Top 50 tabs