>
 >
Artificial Red

Artificial Red Guitar Tabs

Mad Season - Artificial Red chords, tabs, tablatures, lyrics

Guitar lessons | Add/correct | Request | Top 50 tabs Artists:  A B C D E F G H I J K L M N O P Q R S T U V W X Y Z 0-9

Artificial Red Guitar Tabs – Mad Season

CD, Sheet music, Poster

Do you like Artificial Red? Share with your friends now
Bass TabsBass Tabs v2Tabs

*3b means quarter step bend at that fret

-|-----------0--------------0--0--------0--0---------0--------------------|
-|--------------3-----------------------0--3---------0--------------------|
-|---------------------------------------------------2b3-2b3-2b3r2-0------|
-|-------------------------------------------------------------------0h2--|
-|------------------------------------------------------------------------|
-|--*3b--0----------*3b--0--------*3b------*3b-0--------------------------|
Intro

-|-0--0---------0---0---0---------------0--0---------------------------|---|
-|-0--3---------0---3h5-3---------------0--3---------------------------|---|
-|------------------------42-0-----------------------------------------|---|
-|------------------------------2--2--2------------0h2-0h2-----*2br2---|---|
-|---------------------------------------------------------------------|---|
-|------*3b-0---------------------------------*3b-0--------------------|---|


-|-0--------------------0--0------------0------------0-----------|---------|
-|-0--3-----------------0--3------------0--3------0--3--b5r3p0---|---------|
-|----------------------------2b3vvv-----------------------------|---------|
-|---------------------------------------------------------------|---------|
-|---------------------------------------------------------------|---------|
-|-------*3br*3br-0--0---------------0-----*3b-0---------------0-|---------|
Verse

-|---0-----------------0---------------0----------------0----------|-------|
-|---0--3-----------5--3---------------0--3-------------5--3-------|-------|
-|---------2b3r2p0-------------------------------------------------|-------|
-|-----------------------------------------------------------------|-------|
-|-----------------------------------------------------------------|-------|
-|-0------------0---------*3b-*3b-0--0-------*3b-*3b-0--------*3b--|-------|


-|------0--0------------------0-----------------0--------------0--0-------|
-|------0--3------------------0--3vv------------0--3-----------0--3-------|
-|--------------2b3vvv-0----------2b3vvvr2p0----------2b3r2---------------|
-|------------0-----------------------------------------------------------|
-|----2------------------2------------------------------------------------|
-|-0--0------------------0--0----------------0--------------0--------*3b--|
w/distortion

-|----0---------------*0--------------0-----------------0--0------------|--|
-|----0--3------------*3----------------3------------------3------------|--|
-|----------14b16-12------14b16-12--------------------------------------|--|
-|----------------------------------------------------------------------|--|
-|----------------------------------------------------------------------|--|
-|-0------------------------------------0-*3b--*3b-0--0--------*3b-0----|--|
clean "Ooo hoo" *upstroke

-|----0--0----------------------0--0--------------------------------------|
-|----0--3----------------------0--3-------/3----------12-----------------|
-|----------2b3r2p0-0h2p0h2p0h2------------/4-2p0------12h14p12-----------|
-|---------------------------------------------2-0-----------14-12--------|
-|-----------------------------------------------------------------14-12--|
-|-0------------------------------*3b-0-----------------------------------|


-|------0--0--|------0--0------------0-------------------0----------------|
-|------0--3--|------0--3------------0--3-------------------3-------------|
-|------------|----------------------------2b3vvv-------------------------|
-|------------|----------------------------------------------------0hp2---|
-|------------|-----------------------------------------------------------|
-|-0--0-------|-0--0-------*3b--0-x------------3-0--0-------*3b--0--------|
"On a cloud..." (trill)

-|-------0--0-----------------0--0------------------0--0-----------0--0---|
-|----------3-----------------0--3------------------0--3-----------0--3/--|
-|-------------2b3vvvv-------------2b3vvv-2---------------2b3-r2----------|
-|----------------------------------0-------------------------------------|
-|-2--2-----------------2-------------------------------------------------|
-|-0--0-----------------0--0--------------------0--0----------------0-----|
w/distortion

-|---0------------------0------------------17b19-15vvv--------------|
-|---0--3---------------3-------------------------------------------|
-|---------14b16-12vv------14b16-12vvv------------------------------|
-|------------------------------------------------------------------|
-|------------------------------------------------------------------|
-|---------------------------------------------------------*3b-*3b--|
"Ooo hoo"

-|----0--0------------0-------0--0-0--0-0-0-0-0-0--0-0-0-0--------|
-|----0--3---3b4----0---3vvv--3-/5-5-/5-5-5-5-5-3-/5-5-5-3-0------|
-|-----------------------------------------------------------2p0--|
-|----------------------------------------------------------------|
-|----------------------------------------------------------------|
-|-0-------------0------------------------------------------------|


-|-0---0--0--0-0-0-0------/---------------12----------------|
-|-3/5-5-/5-/5-5-3-3/5vv-/---0---------12----12-15b17vvvv---|
-|-----------------------------0-14b16----------------------|
-|----------------------------------------------------------|
-|----------------------------------------------------------|
-|----------------------------------------------------------|


-|-12------------------------------------------------|
-|----15-12----------12-----------12-----------------|
-|----------14-12----12h14-12vvv--12-------------0---|
-|----------------14-----------------14-12----12-----|
-|-----------------------------------------14--------|
-|---------------------------------------------------|


-|-------------------------------------------------------------|
-|-15b17--r15--15b17r15-12----------12-----------12----12------|
-|-------------------------14-12----12h14-12vvv--12----12------|
-|-------------------------------14-----------------14----0----|
-|-------------------------------------------------------------|
-|-------------------------------------------------------------|


-|-17b19r17--17b18-*b19r17--17b18-*b19r17-15-15h17-p15-------------------|---|
-|-----------------------------------------------------17-15h*p17--------|---|
-|----------------------------------------------------------------x-0----|---|
-|-----------------------------------------------------------------------|---|
-|-----------------------------------------------------------------------|---|
-|-----------------------------------------------------------------------|---|
*pre-bend *pre-bend *trill

-|-----0--0------------0------------------0--0--------------------------|
-|-----0--3------------3------3-----------0--3--------------------------|
-|------------2b3-r2------2/4---42p0------------------------------------|
-|------------------------------------2--------------------------2--2---|
-|----------------------------------------------------------------------|
-|-0--------------------------------------------*3b-*3b-*3b-0--0--------|


-|---------|----------------------------------------|-----------------------|
-|---------|------------------------0---------------|-----------------------|
-|---------|------------------------2b4-------------|-----------------------|
-|---------|----------------------------------5b6---|-----------------------|
-|---------|----------------------------------------|-----------------------|
-|---------|--------------------------------0-------|-----------------------|
Bass only "Smoke,poison consumes"

-|-----------------------------------------------3/----|---------------------|
-|-12-14-14131211-11109-98765-----------------|------------------------------|
-|-------14131211-11109-98765-0---------------|------------------------------|
-|---------------------------------------4-32--------|-----------------------|
-|-----------------------------------------------------|---------------------|
-|-----------------------------------------------------|---------------------|


-|---0--------------0--0----------------------------0--0--0-----------|----|
-|-----3------------0--3----------------------------------0---0-------|----|
-|------------------------------------------------------------0-------|----|
-|------------------------------------2-------------------------------|----|
-|-----------------------------------------2-----7--------------------|----|
-|-0------*3b--0--0-------*3br*3b-0-----0--0-3/5----------------0-*3b-|----|


-|----0--------------------0--0--------------0--0-----12---------------|----|
-|----0--3vv---------------0--3--------------0--3--------15-12---------|----|
-|------------2b3vvv------------2b3vvv-----------/14----------14b16r14-|----|
-|---------0-----------------------------------------------------------|----|
-|--------------------2--------------------------------------------------|--|
-|-0--0------------------0--0--------------0--0--------------------------|--|
w/distortion

-|------0----------------|----0--0----------------------------------|----|
-|---------3vv-----------|----0--3----------------------------------|----|
-|-----------------------|-----------*b15r14-12vv----*b15r14-12vv--|-----|
-|-----------------------|------------------------------------------|----|
-|-2---------------------|------------------------------------------|----|
-|-0--0---------*3b--*3b-|-0----------------------------------------|----|
clean "Ooo hoo" *pre-bends

-|---------------------------------------------------------------------|----|
-|------------------12-------------------------------------------------|----|
-|-14b15-12vvvv----12h14-12vvv-------14b15-12---14b15-12--14b15-12--|-------|
-|---------------------------------------------------------------------|----|
-|---------------------------------------------------------------------|----|
-|---------------------------------0-----------------------------------|----|


-|-------------------------||-----------------------------------------------|
-|-------------------------||-----------------------------------------------|
-|-14b15--12b13r12---------||-----------------------------------------------|
-|-----------------14vvv---||-----------------------------------------------|
-|-------------------------||-----------------------------------------------|
-|-------------------------||-----------------------------------------------|
End





Comments


Popular Mad Season tabs & chords
Artificial Red 1 Bass Tabs
I Don't Know Anything Bass Tabs
I Don't Know Anything 1 Tabs
I Dont Know Tabs
Lifeless Dead 1 Tabs
Locomotive Tabs
Wake Up Tabs
Wake Up 2 Tabs
X Ray Mind Tabs
X-ray Mind Tabs


Song lyrics



↑ Back to top | Tablatures and chords are parodies/interpretations of the original songs. You may use it for private study, scholarship, research or language learning purposes only
© 2014 AZChords.com Contact us | Privacy policy | DMCA | Add/correct tabs | Request tabs | Top 50 tabs