>
 >
Wake Up

Wake Up Guitar Tabs

Mad Season - Wake Up chords, tabs, tablatures, lyrics

Guitar lessons | Add/correct | Request | Top 50 tabs Artists:  A B C D E F G H I J K L M N O P Q R S T U V W X Y Z 0-9

Wake Up Guitar Tabs – Mad Season

CD, Sheet music, Poster

Do you like Wake Up? Share with your friends now
Bass TabsBass Tabs v2Bass Tabs v3ChordsTabsTabs v2Tabs v3Ukulele
-|----------|------------------------------|-----5---7---3---------------|----|
-|----------|------------------------------|-5---5-------3---------------|----|
-|----------|-5----4-0--0---------11----9--|-5---5-------4--0--0--11--9--|----|
-|----------|-7----5-5----5----12----10----|-7---7-------5--------12-10--|----|
-|----------|---------------5--------------|-----------------------------|----|
-|----------|------------------------------|-----------------------------|----|
 Bass intro

-|-5---7-5------7----3-----5---------------|---------------------------|------|
-|-5--------------5--3----------8--8h10p8--|-----------------10--8--8--|------|
-|-5-------5---------4----------9----------|-----5--4-0---11-----9-----|------|
-|-7---------7-------5--5------10----------|-7------5-----12----10-----|------|
-|-----------------------------------------|---------------------------|------|
-|-----------------------------------------|---------------------------|------|


-|--------------5--5----------------|-----7-------------------------8--|------|
-|-5------------5--5---3------10--8-|-5-----------5--3---------8-------|------|
-|-5---5h7p5----5------0------11--9-|-5-----5---5----0-----11--9--9----|------|
-|-7---------7-------------12-------|-7-------7---------12----10-------|------|
-|----------------------------------|----------------------------------|------|
-|----------------------------------|----------------------------------|------|
 Verse

-|----8------------5------12-----|----5----------------------------------|----|
-|-5--5------------------------8-|-5-----5--5--5--5--5--5------------3---|----|
-|-5--5--5h7p5--------11-------9-|-5-----5--7--8--7--5--7--0-4-0--0----0-|----|
-|-7------------5-----12------10-|-7-----7--7--7--7--7-------5-----------|----|
-|-------------------------------|---------------------------------------|----|
-|-------------------------------|---------------------------------------|----|


-|----------10\--|-------------------------|----5------5h7--------------|-----|
-|-10--8--8------|-----------10--8--8h10p8-|------5----5----------3-----|-----|
-|-11--9---------|-------0---11--9---------|-5------5--5----4-0-----0---|-----|
-|---------------|-/7--------12-10---------|-7---------7----5---5-----5-|-----|
-|---------------|-------------------------|----------------------------|-----|
-|---------------|-------------------------|----------------------------|-----|
                                                                Enter G2

-|-------------------5-------------------------------|------------------------|
-|-----8--8-----5----5-----------3--------10--8------|------------------------|
-|-0---9--9-------5--5--5h7p5----4--0--11-11--9--x-0-|------------------------|
-|----10-10---7---7-----------7--5-----12----10--x-0-|------------------------|
-|---------------------------------------------------|------------------------|
-|---------------------------------------------------|------------------------|
 G2(distorted)

-|-------------------------------|---------------------------------|----------|
-|---------------5---------------|----5-5-----------------5--------|----------|
-|-5----5h7p5----5--4p0----------|-5------7--5h7b8r7p5----5h7p5----|----------|
-|-5h7--------7--7--5-----12--10-|-7-------------------7--------7--|----------|
-|------------------------12--10-|---------------------------------|----------|
-|-------------------------------|---------------------------------|----------|


-|----------10-------8-----|----7p5--------------------------------10-----|---|
-|------3------10------8---|--------5-5h7-5----5---5--3------------10--8--|---|
-|-4p0--0---------11-----9-|-5-----------------5h7-5--4-0--0----11-----9--|---|
-|-5-----------------------|-7--------------7---------5------0--12----10--|---|
-|-------------------------|----------------------------------------------|---|
-|-------------------------|----------------------------------------------|---|


-|-5----------------------5---------------|-----------------------------------|
-|-5---------------5--------3-------10----|-----------------------------------|
-|-5--5h7p5--------5--4-0-----0--11-11--9-|-----------------------------------|
-|-7--------7--5-7---------------12----10-|-----------------------------------|
-|----------------------------------------|-----------------------------------|
-|----------------------------------------|-----------------------------------|


-|----7----------------------------------------------|------------------------|
-|------------5---5-----5----------10---8--8h10p8----|------------------------|
-|-5----5-----5h7-7h8p7-5--4-0-----11---9---------9\-|------------------------|
-|-7------7-7--------------5----12-----10------------|------------------------|
-|---------------------------------------------------|------------------------|
-|---------------------------------------------------|------------------------|


-|---------------------10---8-|-----------------------------------|-----------|
-|------------------10------8-|-------------------5---3----10---8-|-----------|
-|-5--5-5--0---x-0--11------9-|-5--5--5h7p5-5--5----0-4-0--11---9-|-----------|
-|-7-----------------------10-|-7-----------7--7------5----12--10-|-----------|
-|----------------------------|-----------------------------------|-----------|
-|----------------------------|-----------------------------------|-----------|


-|-------------------------------------|-------------------------------|------|
-|----5--------------5--3-------10---8-|-5--5-------5--5--3--3--10---8-|------|
-|----5--7p5-5--5----5--4-0--0--11---9-|-5--5-------5--5--0--0--11---9-|------|
-|-7--7------7--5h7-----5-------12--10-|-7----------7--7--5--5--12--10-|------|
-|-------------------------------------|-------/12\--------------------|------|
-|-------------------------------------|-------------------------------|------|


-|------------------------------------------|---------------------------|-----|
-|----5--5------5--5--3--3--3-3----10-10--8-|-5--5--5--5--3------10---8-|-----|
-|----5-----5-5-5--5--4--0--0-0-0--11-11--9-|-5--5--5--5--4-0----11---9-|-----|
-|-7--7-----5-7-7-----5------------12----10-|-7-----7-----5---5--12--10-|-----|
-|------------------------------------------|---------------------------|-----|
-|------------------------------------------|---------------------------|-----|


-|------------5----------------------5-----------------------------|----------|
-|-8b10vvvvvv---8-5h8-8p5-8b10vvvvvv---8-5h8p5---------------------|----------|
-|---------------------------------------------7b9--r7-7vvvvvv-----|----------|
-|-----------------------------------------------------------------|----------|
-|-----------------------------------------------------------------|----------|
-|-----------------------------------------------------------------|----------|
 Solo                                                    w/feedback

-|-----------------------------------------8-10-10b12-r10-10vvvvv--|----------|
-|----------------------------8-8-8h10--10-------------------------|----------|
-|-5--4-\2--2--2h4p2vvvvvv-/9--------------------------------------|----------|
-|-----------------------------------------------------------------|----------|
-|-----------------------------------------------------------------|----------|
-|-----------------------------------------------------------------|----------|


-|-10b12--r10-10-\-|-20b22------20b22r20-x-17--------------------------------|
-|-----------------|--------------------------20-17-20-17----17--------------|
-|-----------------|--------------------------------------19----19b20r19p17--|
-|-----------------|---------------------------------------------------------|
-|-----------------|---------------------------------------------------------|
-|-----------------|---------------------------------------------------------|
                                           w/delay

-|--------------------------------------------------------------------|-------|
-|-17-----------------------------------------------------------------|-------|
-|----17-19p17-19-17-19b20r19p17-19vvvvvv-19vvvv-19-19b20r19-17----17-|-------|
-|--------------------------------------------------------------19----|-------|
-|--------------------------------------------------------------------|-------|
-|--------------------------------------------------------------------|-------|


-|------------------------------------------------------|---------------------|
-|------------------------------------------------------|---------------------|
-|-19-19b20r19-17----17-19-19b20r19-17---17-19-17-19-17-|---------------------|
-|----------------19------------------19----------------|---------------------|
-|------------------------------------------------------|---------------------|
-|------------------------------------------------------|---------------------|


-|-20b22----------------------5-------------------------------------|---------|
-|------------------------------8-5---5-----------------------------|---------|
-|------------------7b9---r7--------7---7-5---5---4vvvv--\2vvvvvvvv-|---------|
-|--------------0-0-------------------------7-----------------------|---------|
-|--------/-x-\-----------------------------------------------------|---------|
-|--------/-x-\-----------------------------------------------------|---------|
                             w/delay

-|-------5-----------10---------8-|--------7-5-------------10--8--8h10p8-|----|
-|-5-------5------------10--------|----------------------------8---------|----|
-|-5--5------5--4-0--------11\9---|-5----5------12--12--11-----9---------|----|
-|-7--7---------------------------|-7--7----------------12---------------|----|
-|--------------------------------|--------------------------------------|----|
-|--------------------------------|--------------------------------------|----|


-|---------------------10--8-|------------------------------|-----------------|
-|----7\5------3-------10--8-|-5-------5---------3----------|-----------------|
-|-5------5----0----4--11--9-|-----5----------4----0------9-|-----------------|
-|-7--------7-----5----------|---7---7---7-7--5----------10-|-----------------|
-|---------------------------|------------------------------|-----------------|
-|---------------------------|------------------------------|-----------------|


-|-5--5-------------------5------10--8-|-------8--5-----8-----3----------|----|
-|----5-----------------3-----10-----8-|----/5-5--5--/5-5-----3---10---8-|----|
-|-------5--7p5----0--0-------11-----9-|-5--/5----5--/5----4--0---11---9-|----|
-|-------7------7-------------12-------|-7--------7--------5------12--10-|----|
-|-------------------------------------|---------------------------------|----|
-|-------------------------------------|---------------------------------|----|


-|-5--5-------------------------10----|----5------5--------------------------|
-|-5--5-------------5---------------8-|------5--5----5--5-------------10--8--|
-|-5-----5h7p5----5---5---0--11-----9-|-5------------5--7/9-5---5--0--11--9--|
-|-------------7----------0--12----10-|-7---------------------7-------12-10--|
-|------------------------------------|--------------------------------------|
-|------------------------------------|--------------------------------------|


-|----------------------|---------5---3-|------|------------------------------|
-|----------------------|----5----------|------|------------------------------|
-|----------------------|---------------|------|------------------------------|
-|-7--7-----------------|-7----7--------|------|------------------------------|
-|----------------------|---------------|--0---|------------------------------|
-|----------------------|---------------|------|------------------------------|





Comments


Popular Mad Season tabs & chords
I'm Above Bass Tabs
Long Gone Day 1 Bass Tabs
I Dont Know Chords
I Dont Know Anything Intro Tabs
Lifeless Dead Tabs
Lifeless Dead 1 Tabs
Long Gone Day Tabs
November Hotel Tabs
River Of Deceit Tabs
X Ray Mind Tabs


Song lyrics



↑ Back to top | Tablatures and chords are parodies/interpretations of the original songs. You may use it for private study, scholarship, research or language learning purposes only
© 2014 AZChords.com Contact us | Privacy policy | DMCA | Add/correct tabs | Request tabs | Top 50 tabs